Author/Artist: Big Wreck
Title: The Oaf
Album: In Loving Memory of
Transcribed by: Brent Towsley
Email: [email protected]
Tuning: Open Gb5 (Db, Gb, Db, Gb, Gb, Db, low to high)

This file is best printed in a word processor with the Courier New font
at size 9.

Intro: tremolo effects

D-5-0-0-5-0-0-5-0-4-0-7-0-4-0-0-0-|-5-0-0-5-0-0-5-0-4-0-7-0-4-0-0-0-|
G-0-0-0-0-0-0-0-0-0-0-0-0-0-0-0-0-|-0-0-0-0-0-0-0-0-0-0-0-0-0-0-0-0-|
G-0-------------------------------|-0-------------------------------|
D---------------------------------|---------------------------------|
G---------------------------------|---------------------------------|
D---------------------------------|---------------------------------|

D-5-0-0-5-0-0-5-0-4-0-7-0-4-0-0-0-|-5-0-0-5-0-0-5-0-4-0-7-0-4-0-0-0-|
G-0-0-0-0-0-0-0-0-0-0-0-0-0-0-0-0-|-0-0-0-0-0-0-0-0-0-0-0-0-0-0-0-0-|
G-5-------------------------------|-5-----------5---4---------------|
D---------------------------------|---------------------------------|
G---------------------------------|---------------------------------|
D---------------------------------|---------------------------------|

D-0-----0-----0-------------------|-0-----0-----0-------------------|
G-5-----4-----2-------------------|-5-----4-----2-------------------|
G-0-0-0-0-0-0-0-0-0-0-0-0-0-0-0-0-|-0-0-0-0-0-0-0-0-0-0-0-0-0-0-0-0-|
D---------------------------------|---------------------------------|
G---------------------------------|---------------------------------|
D---------------------------------|---------------------------------|

D-0-----0---0-----0-----0---------|-0---------------0-0-0-0-0-0-0-0-|
G-5-----4---5/7---2-----2/4-------|-0---------------0-0-0-0-0-0-0-0-|
G-0-0-0-0-0-0-0-0-0-0-0-0-0-0-0-0-|-0-0-0-0-0-0-0-0-0-0-0-0-0-0-0-0-|
D---------------------------------|---------------------------------|
G---------------------------------|---------------------------------|
D---------------------------------|---------------------------------|

Heavy distortion
D---------------------------------|---------------------0---0-------|
G-------------------------0-------|---------------------7---7~~~~---|
G-3-4-----5-0-3-4---------0-------|-3-4-----5-0-3-4-----7---7~~~~-0-|
D-3-4-5-0-5-0-3-4-5-0-3h4-0-------|-3-4-5-0-5-0-3-4-0-------------0-|
G-3-4-5-0-5-0-3-4-5-0-3h4-0-------|-3-4-5-0-5-0-3-4-0-------------0-|
D-----5-0---------5-0-3h4---------|-----5-0---------0---------------|

D---------------------2---2-------|---------------------------------|
G---------------------0---0-------|-------------------------0-------|
G-3-4-----5-0-3-4-----0---0-------|-3-4-----7-0-3-4-5-0-3-4-0-------|
D-3-4-5-0-5-0-3-4-0---x---x---0---|-3-4-5-0-7-0-3-4-5-0-3-4-0-------|
G-3-4-5-0-5-0-3-4-0---5---5-----0-|-3-4-5-0-7-0-3-4-5-0-3-4-0-------|
D-----5-0---------0---3---3-------|-----5-0-------------------------|

Verse 1

D---------------------------------|---------------------------------|
G:--------------------------------|--------------------------0-----:|
G---------------------------------|--------------------------0------|
D---------------------------------|----------------------3h4-0------|
G:--------------------------------|----------------------3h4-0-----:|
D---------------------------------|----------------------3h4--------|
Who'd you drag around my door
Keep it cracked they won't be here no more
Who'd you leave along the way
Leave 'm there don't come back today

Bridge 1

D-2---2-------2---2-----2-0-------|-2---2--------2---2--------------|
G:0---0-------0---0-----0-0-------|-0---0--------0---0-------0-----:|
G-0---0-------0---0-----0-0-------|-0---0--------0---0-------0------|
D-x---x-------x---x-----x-0-------|-x---x--------x---x---3h4-0------|
G:5---5-----5-5---5--5--5-0-------|-5---5------5-5---5---3h4-0-----:|
D-3---3-----3-3---3--3--3---------|-3---3------3-3---3---3h4--------|

Verse 2
PM~~~~~~~~~~~~~~~~~~~~~~~~~~~~~~~~~~~~~~~~~~~~~~~~~~~~~~~~~~~~~~~~~
D---------------------------------|---------------------------------|
G---------------------------------|---------------------------------|
G-3-4-----5-0-3-4---------0-0-0-0-|-3-4-----5-0-3-4---------0-0-0-0-|
D-3-4-5-0-5-0-3-4-5-0-3h4-0-0-0-0-|-3-4-5-0-5-0-3-4-5-0-3h4-0-0-0-0-|
G-3-4-5-0-5-0-3-4-5-0-3h4-0-0-0-0-|-3-4-5-0-5-0-3-4-5-0-3h4-0-0-0-0-|
D-----5-0---------5-0-3h4---------|-----5-0---------5-0-3h4---------|
Now who's the one who treats you right

PM~~~~~~~~~~~~~~~~~~~~~~~~~~~~~~~~~~~~~~~~~~~~~~~~~~~~~
D---------------------------------|---------------------------------|
G---------------------------------|-------------------------0-------|
G-3-4-----5-0-3-4---------0-0-0-0-|-3-4-----5-0-3-4---------0-------|
D-3-4-5-0-5-0-3-4-5-0-3h4-0-0-0-0-|-3-4-5-0-5-0-3-4-5-0-3h4-0-------|
G-3-4-5-0-5-0-3-4-5-0-3h4-0-0-0-0-|-3-4-5-0-5-0-3-4-5-0-3h4-0-------|
D-----5-0---------5-0-3h4---------|-----5-0---------5-0-3h4---------|
Yeah leave him there, don't come back to fight
Now who's the lad who wants to be
It never was, and it just can't be me

Chorus

D---------0---0-0-0---------0---0-0-0-|---------0---0-0-0---------0---0-0-0-|
G:--------0---0-0-0---------0---0-0-0-|---------0---0-0-0---------0---0-0-0:|
G---------0---0-0-0---------0---0-0-0-|---------0---0-0-0---------0---0-0-0-|
D-12---12-----------11---11-----------|-10---10-----------10---10-----------|
G:------------------------------------|------------------------------------:|
D-12---12-----------11---11-----------|-10---10-----------10---10-----------|
My luck is wasted
I'm on the run somewhere
My luck is wasted

D---------0---0-0-0---------0---0-0-0-|---------0---0-0-0-----------------|
G---------0---0-0-0---------0---0-0-0-|---------0---0-0-0-0---------------|
G---------0---0-0-0---------0---0-0-0-|---------0---0-0-0-0---------------|
D-12---12-----------11---11-----------|-10---10-----------8---------------|
G-------------------------------------|-----------------------------------|
D-12---12-----------11---11-----------|-10---10-----------8---------------|
I'm on the run somewhere

Bridge 2 - same as the distortion part of the intro

Verse 3 - same as verse 2 with these lyrics

Throw the rocks and break the glass
I'll get down on my knees and kiss your ass
'Cause you're the one to be in my dreams
It never was, it isn't what it seems

Chorus

Solo - with the same effects as the intro

D-5-0-0-5-0-0-5-0-4-0-7-0-4-0-0-0-|-5-0-0-5-0-0-5-0-4-0-7-0-4-0-0-0-|
G-0-0-0-0-0-0-0-0-0-0-0-0-0-0-0-0-|-0-0-0-0-0-0-0-0-0-0-0-0-0-0-0-0-|
G-0-------------------------------|-0-------------------------------|
D---------------------------------|---------------------------------|
G---------------------------------|---------------------------------|
D---------------------------------|---------------------------------|

D-5-0-0-5-0-0-5-0-4-0-7-0-4-0-0-0-|-5-0-0-5-0-0-5-0-4-0-7-0-4-0-0-0-|
G-0-0-0-0-0-0-0-0-0-0-0-0-0-0-0-0-|-0-0-0-0-0-0-0-0-0-0-0-0-0-0-0-0-|
G-5-------------------------------|-5-----------5---4---------------|
D---------------------------------|---------------------------------|
G---------------------------------|---------------------------------|
D---------------------------------|---------------------------------|

D-7-9-9-9-9-9-7-9-9-9-9-9-7-9-7--|-2-4-4-2---------------2/9-9-7---|
G-0-0-0-0-0-0-0-0-0-0-0-0-0-0-0-0-|-0-0-0-0-0-0-0-0-0-0-0-0-0-0-0-0-|
G---------------------------------|---------------------------------|
D---------------------------------|---------------------------------|
G---------------------------------|---------------------------------|
D---------------------------------|---------------------------------|

D-2-4-4-2---------------2-2-4-5---|-0-----------0-----0-----0-----0-|
G-0-0-0-0-0-0-0-0-0-0-0-0-0-0-0-0-|-0-----------5-----4-----2-----0-|
G---------------------------------|-0-0-0-0-0-0-0-0-0-0-0-0-0-0-0-0-|
D---------------------------------|---------------------------------|
G---------------------------------|---------------------------------|
D---------------------------------|---------------------------------|

D-7-9-9-9/12---9-9-7-9-9-9/12---9-9-|-7-9-9-9/14---9-9-7-9-0-5-7-0-3-5-|
G-0-0-0-0-0--0-0-0-0-0-0-0-0--0-0-0-|-0-0-0-0-0--0-0-0-0-0-0-0-0-0-0-0-|
G-----------------------------------|----------------------------------|
D-----------------------------------|----------------------------------|
G-----------------------------------|----------------------------------|
D-----------------------------------|----------------------------------|

D-7-9-9-9/12---9-9-7-9-9-9/12---9-9-|-7-9-9-9/14-|
G-0-0-0-0-0--0-0-0-0-0-0-0-0--0-0-0-|-0-0-0-0-0--|
G-----------------------------------|------------|
D-----------------------------------|------------|
G-----------------------------------|------------|
D-----------------------------------|------------|

D-7-9-0-5-7-0-3-5-0-3-2-0-0-0-0---|-7-9-0-5-7-0-3-5-0-3-2-0-0-0-0---|
G-0-0-0-0-0-0-0-0-0-0-0-0-4-2-0---|-0-0-0-0-0-0-0-0-0-0-0-0-4-2-0---|
G---------------------------------|---------------------------------|
D---------------------------------|---------------------------------|
G---------------------------------|---------------------------------|
D---------------------------------|---------------------------------|

D-14-0-0-10-0-0-14-0-14-0-10-0-12-0-0-0-|-14-0-0-10-0-0-14-0-14-0-10-0-12-0-0-0-|
G-0--0-0-0--0-0-0--0-0--0-0--0-0--0-0-0-|-0--0-0-0--0-0-0--0-0--0-0--0-0--0-0-0-|
G---------------------------------------|---------------------------------------|
D---------------------------------------|---------------------------------------|
G---------------------------------------|---------------------------------------|
D---------------------------------------|---------------------------------------|

D-15-15-15-15-15-15-15-15-15-15-15-15-15-14-12-14-|
G:0--0--0--0--0--0--0--0--0--0--0--0--0--0--0--0-:|
G-------------------------------------------------|
D-------------------------------------------------|
G:-----------------------------------------------:|
D-------------------------------------------------|

Bridge 2

D-----------------------------------|-----------------------------------|
G-------------------------------0-0-|-------------------------------0-0-|
G-12-----10-----6-5-------------0-0-|-12-----10-----6-5-------------0-0-|
D-12-----10-----6-5-----------------|-12-----10-----6-5-----------------|
G-12-----10-----6-5-----------------|-12-----10-----6-5-----------------|
D-----------------------------------|-----------------------------------|

D-----------------------------------|---------------------------------|
G-----------------------------------|-0-------------------------------|
G-12-----10-----6-5-------5h7-------|-0-------------------------------|
D-12-----10-----6-5-------5h7-------|-0-------------------------------|
G-12-----10-----6-5-------5h7-------|-0-------------------------------|
D-----------------------------------|---------------------------------|

Verse 4 - feedback on the last note of bridge 2

Chorus

Outro

D-------5-----------5-----------5-|-----------5-----------5-----5---|
G-3-0-0-3-0-0-3-0-0-3-0-0-3-0-0-3-|-0-0-3-0-0-3-0-0-3-0-0-3-0-0-3-0-|
G-0-0-0-0-0-0-0-0-0-0-0-0-0-0-0-0-|-0-0-0-0-0-0-0-0-0-0-0-0-0-0-0-0-|
D---------------------------------|---------------------------------|
G---------------------------------|---------------------------------|
D---------------------------------|---------------------------------|

D-5-5-5-3---2---0-----------------|-5-5-5-3---2---0-----------------|
G:7-7-7-5---5---0-5/7-54-54-----|-7-7-7-5---5---0-5/7-54-5-------|
G-----------------3/5-3-3-----|-----------------3/5-3-3-------|
D-----------------------------2-0-|---------------------------------|
G:--------------------------------|---------------------------------|
D---------------------------------|---------------------------------|

D-5-5-5-3---2---0-----------------|-------------------------0-------|
G-7-7-7-5---5---0-5/7-54-54-----|-5/7-54-54-4h5/7-4-5/7-0------:|
G-----------------3/5-3-3-----|-3/5-3-3-0h3/5-0-3/5-0-------|
D-----------------------------2-0-|---------------------------------|
G---------------------------------|--------------------------------:|
D---------------------------------|---------------------------------|

Now, the tab legend:
/ - slide up h - hammer on ~ - vibrato
- slide down : - repeat bars PM - palm mute

This is my first major attempt at tabbing something. I hope this helps some people
out, because I had one hell of a time with this song. Please send me every comment
you can think of, I like some good criticism.

Brent Towsley [email protected]


Ваше мнение



Капча