*-play a couple times
INTRO/VERSE
--------------------------------------------------------------------
--------------------------------------------------------------------
------------x3------------------------------------------------------
--------11---------------9*-----------------------------------------
--11*---9----------------7------9-----------------------------------
--9-----------------------------7-----------------------------------
ON THE 4TH VERSE IT GOES LIKE THIS
---9*--14-X3---12*--------------------------------------------------
---------------12---------------------------------------------------
--------------------------------------------------------------------
--------------------------------------------------------------------
--------------------------------------------------------------------
--------------------------------------------------------------------
pretty sure its right
ANTI-FLAG KICKS ASS!


Ваше мнение



Капча