Anti-Flag - That's Youth

intro/riff
E|-------------------------------------------
B|-------------------------------------------
G|-------------------------------------------
D|-44444433------33--------------------------
A|---------444444----------------------------
E|-----------------4444446677777744----------

E|-------------------------------------------
B|-------------------------------------------
G|-------------------------------------------
D|-44444433------33------8-9-----------------
A|---------444444--------8-9-----------------
E|-----------------4444446-7-----------------

E|-------------------------------------------
B|-------------------------------------------
G|-11-11-11-11-------------9-9-9-9-----------
D|-11-11-11-11-11-11-11-11-9-9-9-9-9-9-9-9---
A|--9--9--9--9-11-11-11-11-7-7-7-7-9-9-9-9---
E|--------------9--9--9--9---------7-7-7-7---

Chorus:
E|-------------------------------------------
B|-------------------------------------------
G|-11-11-111110-----------10-----------------
D|-11-11-111110-11-11-111110-6-6-668-9-9-996-
A|--9--9--9-9-8-11-11-1111-8-6-6-668-9-9-996-
E|---------------9--9--9-9---4-4-446-7-7-774-


Ваше мнение



Капча

Рекомендуем