e---------------------|
B---------------------|
G----------88888888---| (x2)
D-88888888-88888888---|
A-88888888-66666666---|
E-66666666------------|

e-------------------------------|
B-------------------------------|
G-------------3-----------------| (x2)
D-8888888-5-3-------------------|
A---------------6666666-5-3-----|
E---------------------------6---|

e---------------------|
B---------------------|
G----------88888888---| (x2)
D-88888888-88888888---|
A-88888888-66666666---|
E-66666666------------|

e---------------------|
B---------------------|
G-55555555-88888888---| (x1)
D-55555555-88888888---|
A-33333333-66666666---|
E---------------------|

e-------------------|
B-------------------|
G-----888-555--88---| (x2)
D-888-888-555--88---|
A-888-666-333--66---|
E-666---------------|

e-------------------------------|
B-------------------------------|
G-------------3-----------------| (x2)
D-8888888-5-3-------------------|
A---------------6666666-5-3-----|
E---------------------------6---|

e---------------------|
B---------------------|
G----------88888888---| (x2)
D-88888888-88888888---|
A-88888888-66666666---|
E-66666666------------|

e---------------------|
B---------------------|
G-55555555-88888888---| (x1)
D-55555555-88888888---|
A-33333333-66666666---|
E---------------------|

e-------------------|
B-------------------|
G-----888-555--88---| (x2)
D-888-888-555--88---|
A-888-666-333--66---|
E-666---------------|

e---------------|
B---------------|
G-----------8---| (x1)
D-88888888--8---|
A-88888888--6---|
E-66666666------|

e------------|
B------------|
G------------| (x1)
D-88888888---|
A-88888888---|
E-66666666---|

e---------------------|
B---------------------|
G----------88888888---| (x4)
D-88888888-88888888---|
A-88888888-66666666---|
E-66666666------------|

e--------------|
B--------------|
G-55555555-8---| (x1)
D-55555555-8---| hold last chord thru pause
A-33333333-6---|
E--------------|

(boo hoo hoo my girlfriend dumped me...)

e-------------------|
B-------------------|
G-----888-555--88---| (x4)
D-888-888-555--88---|
A-888-666-333--66---|
E-666---------------|


Ваше мнение



Капча

Рекомендуем