From: [email protected]
Woke Up With Wood
ZZ Top
from the AfterBurner album
Transcribed by Steven Chandler
Note: Play with plenty of fuzz and enough reverb or delay to help
squeeze out some of those signature Gibbons pinch harmonics
at random with your pick thumb.
intro lead riff repeat 4X
|--(8)\6---------------------------(8)\6------------------|
|--------8-------------------------------8----------------|
|*---------10--8--------------8------------10--8---------*|
|*----------------10~~~-------8-------------------10~~~--*|
|------------------------8h10-----------------------------|
|---------------------------------------------------------|
4x
|--------------------------------|------------------------------------------
|--------------------------------|---8------------------8-------------------
|*-------------8-----8---10-----*|---8-10--------10-----8-10--------10------
|*-------10----8-----8---10-----*|-----10----10--10-------10----10--10------
|--------10----------------------|-----------10-----------------10----------
|--------------------------------|------------------------------------------
"When I woke up this mornin.."
----------------------
----------------------
--------8---10---10---
---10---8---10---10---Solo..
---10-----------------
----------------------




Ваше мнение



Капча