From: [email protected] (John Halonen )
Good Old Rocker From ZZ Top

Waitin For The Bus
-------------------------------------------------------------------------
< = hammer on or pull off

Intro:
RIFF 1
E------------------|----------------|----------------|------------------|
B------------------|----------------|----------------|------------------|
G-----------------|------------5---|----------------|-------------5---|
D-7---5---7---5-|---7-7--5-----|-7--5---7---5-|--7-7---5-------|
A------------------|----------------|----------------|------------------|
E------------------|----------------|----------------|------------------|

Repeats
RIFF1
Have Mercy, Been Waitin on the bus all day.

RIFF 2
E------------------|----------------|----------------|------------------|
B------------------|--------------6|----------------|---------------6--|
G---7--5---7--5-|---7-7---5----|--7--5--7---5-|---7-7--5-------|
D------------------|----------------|----------------|------------------|
A------------------|----------------|----------------|------------------|
E------------------|----------------|----------------|------------------|

Repeat
RIFF 1

RIFF 3
E------------------|-----------------|---------------|-------------------|
B------------------|---------3------|----------------|------------------|
G------------------|------2---------|---------2-----|------------------|
D------------------|---0------------|------2--------|------------------|
A---2----------3--|-----------------|---0----------|---5




Ваше мнение



Капча