-------------------------------------------------------------------------------
Viva Las Vegas - ZZ-Top
-------------------------------------------------------------------------------
Tabbed by:Classic Rock
Email:[email protected]
Tuning:Standard Moderately Fast-120 BPM
Rhy.Fig 1. Synthesizer arr for guitar and 1and 2 Verses of Song
E|--------------------------------------------------------------------------------|
B|--------------------------------------------------------------------------------|
G|--------------------------------------------------------------------------------|
D|-------6-----6-------------------6-----6----------------------------------------|
A|--8----4-----4--8----8----8------4-----4----------------------------------------|
E|--6-------------6----6----6-----------------------------------------------------|
Guitar 2 Fill over Fig 1
e|--------------------------|-----------------------------------------------------+
B|--------------------------|-----------------------------------------------------+
G|------------6-------------|-----------------------------------------------------+
D|-------X---------8~-------|---------------------X--X---X------8---8--H-----6----+
A|--X-----------------------|----10-H---8---------X--X---X------------------------+
E|--------------------------|---------------------X--X---X------------------------+
E|---------------------------------------------------------------------------------------------|
B|---------------------------------------------------------------------------------------------|
G|---------------------------------------------------------------------------------------------| Pre-Chorus
D|3----5------5------5-----5-------X------------5-------5--------5----------3--------3---S---5-|
A|3----5------5------5-----5---------X----------5-------5--------5----------1--------3---S---5-|
E|--------3-------------3--------------X-----3-----------------3---------1---------1-----------|
e|---------------------------------------------------------------------|
B|---------------------------------------------------------------------|
G|---------8-----------------------------------------------------------| Chorus
D|---------8--------------8-----8--p-----6--------8-----p----6---------|
A|---6-----6--------------8-----8--p-----6--------8-----p----6---------|
E|------------------6-----------------------------6--------------------|
e|---------------------------------------------------------------------|
B|---------------------------------------------------------------------|
G|---8--------------------------------------X----X---8-----------------|
D|---8--------------------------------------X----X---8-----------------| Bridge
A|---6--------------------------------------X----X---6-----------------|
E|---------------------------------------------------------------------|
| / slide up
| slide down
| h hammer-on
| p pull-off
| ~ vibrato
| + harmonic
| x Mute note




Ваше мнение



Капча