From: [email protected] (Mark A. Clark)
Subject: TAB: Velcro Fly by ZZ_Top
Date: Wed, 14 Feb 1996 10:47:41 -0600 (CST)
SONG: Velcro Fly
ARTIST: ZZ Top
ALBUM: AFTERBURNER
This is the lead break from Velcro Fly as I play it...
Uses lots of pick harmonics.
T=76
e|-----------------------------------------------------------------------------
b|-8------8---H^---------------------------------------------------------------
G|----10-----8--10----------------------P^-------------------------------------
D|------------------10--8--10------8--10--8----S-------------------------------
A|-----------------------------10------------10\-8------8--10------------------
E|--------------------------------------------------11---------8---------------
e|-------------------------------------------------------11--------------------
b|-----------W--------x-8----P^----------------S-----11------13----------------
G|-----8--10^--8------x-8--10--8----------8--10/-12--------------12------------
D|-10-------------10--------------10--10---------------------------------------
A|-----------------------------------------------------------------------------
E|-----------------------------------------------------------------------------
e|-----------------------------------------------------------------------------
b|-----11--------S------H^-----------------------------------------------------
G|-12------12--10/-12--8--10-------------8--------------8----------------------
D|----------------------------10--8--10-----10------10-------------------------
A|----------------------------------------------10-----------------------------
E|-----------------------------------------------------------------------------
[email protected]




Ваше мнение



Капча