Here it is, My attempt at ZZ-Top's - She's Killin' me, I did this one night
out of boredom so it's unlikely to be 100%, but it's close enough. Enjoy.
This is possibly tuned down to Eb :-)
Intro Fourth Time Skip
||----------------------------------------|----------------||--------|---------
||----------------------------------------|----------------||--------|---------
||*---------------------------------------|---2--2--------*||--------|---------
||*---------2-----2--------2-----2--------|---2-----0--2--*||--------|---------
||----------2-----2--------2-----2--------|----------------||--------|---------
||----0--0-----0-----0--0-----0-----0--0--|----------------||--3--0--|---------
(heavy muting on the open E's)
-------------------------------------------------------------------------------
-------------------------------------------------------------------------------
-------------------------------------------------------------------------------
-------------------------------------------------------------------------------
-------------------------------------------------------------------------------
-------------------------------------------------------------------------------
E Verse
||----------------------------------------------------|------------------------
||----------------------------------------------------|------------------------
||*---------------------------------------------------|------------------------
||*---------------------------------------------------|------------------------
||----------------------------------------------------|------------------------
||----3---0--3--0-----------3--0--3--0--3(4)--0--3----|------------------------
(Bend)
-----------------------------------------|-----------------------------|-------
-----------------------------------------|-----------------------------|-------
-----------------------------------------|-----------------------------|-------
--------------------------------------2--|-----------------------------|-------
-----------------------------------------|-----------------------------|-------
3--0--3--0-----3--0--3--0--------3(4)----|--3--0--3--0-----3--0--3--0--|-------
(Bend)
F G
----1--0---------3--0--3--0--------|-------------------------------------------
-----------------------------0--3--|-------------------------------------------
-----------------------------------|-------------------------------------------
-----------------------------------|-------------------------------------------
-----------------------------------|-------------------------------------------
-----------------------------------|-------------------------------------------

-------------------------------------------------------------------------------
-------------------------------------------------------------------------------
-------------------------------------------------------------------------------
-------------------------------------------------------------------------------
------------------0--------------------------0---------------------------------
3--0--0--3--0--3-----------3--0--0--3--0--3--------------3--0--0--3--0--3------

---||---------------------------------||-----------------------|---------------
---||---------------------------------||-----------------------|---------------
---||*-------------------------------*||-----------------------|---------------
---||*--7-9--9--9--9-----------------*||-----------------------|---------------
0--||---7-9--9--9--9------------------||-------5---------------|---------------
---||---5/7--7--7--7------------------||--5h7-----5h7p5--3--0--|---------------
1X Intro twice and return to ver 2X Intro Twice then First Solo
-----------------------------------|------------------------------|------------
-----------------------------------|------------------------------|------------
-----------------------------------|------------------------------|------------
-----------------------------------|------------------------------|------------
-----------------------------------|------------------------------|------------
-----------------------------------|------------------------------|------------

--/3--3--3--3--3-----3--3--0------------------------/3--3--3--3--3--0----------
-/-3--3--3--3--3-----3--3--0----------3----------3---3--3--3--3--3--0----------
---------------------------------2/4--------2/4------------------------2/4-----
-------------------------------------------------------------------------------
-------------------------------------------------------------------------------
0------------------------------------------------------------------------------

-----------------------------------------|-------------------------------------
3----------------------------------------|-------------------------------------
---4\2--0--------------------------------|-------------------------------------
-----------2--0--2--0--2--0--2--0--2-----|-------------------------------------
-----------------------------------------|-------------------------------------
--------------------------------------3--|-------------------------------------
(w randy rhodes-ish flipping of pickup switch)
7--7--7--7--7--7--7--7--7--7--7--7--7--7--7--7--|------------------------------
7--7--7--7--7--7--7--7--7--7--7--7--7--7--7--7--|------------------------------
------------------------------------------------|------------------------------
------------------------------------------------|------------------------------
------------------------------------------------|------------------------------
------------------------------------------------|------------------------------
And so on - It's all very similar...
3--0--3--0----------------------|----------------------------------------------
-----------------3--------------|----------------------------------------------
------------2/4-----4\2--0------|----------------------------------------------
----------------------------2---|----------------------------------------------
--------------------------------|----------------------------------------------
--------------------------------|----------------------------------------------
You can figure it out yourselve(It's all in G)
-----------------------------------------------------------------------|-------
-----------------------------------------------------------------------|-------
-----------------------------------------------------------------------|-------
-----------------------------------------------------------------------|-------
-----------------------------------------------------------------------|-------
-----------------------------------------------------------------------|-------
That's it for now, I might post the second Solo if there is any demand.
You can Email me at [email protected], for and suggestions, corrections
flames etc.
My next attempt is 'March of the Black Queen' by Queen, any pointers would
be appreciated.
Brian Freyne,
Waterford, Ireland.




Ваше мнение



Капча