#----------------------------------PLEASE NOTE---------------------------------#
#This file is the author's own work and represents their interpretation of the #
#song. You may only use this file for private study, scholarship, or research. #
#------------------------------------------------------------------------------##
From [email protected] Sat Jun 18 05:32 CDT 1994
From: [email protected] ( neil bergin xd/gk)
Date: Sat, 18 Jun 94 11:32:37 BST
To: [email protected]
Subject: TAB: SHARP DRESSED MAN - ZZ TOP
Posted by: [email protected] (ENDERS C.W.G.M.)
SHARP DRESSED MAN - ZZ TOP

[INTRO repeat several times]
E-|-------------------------------------|-------------------------------------|
B-|-------------------------------------|-------------------------------------|
G-|-----10--8---------------------------|----10--8----------------------------|
D-|-----10--8--10-----------------------|----10--8--10---------------------5--|
A-|-------------------------------------|-----------------------------1h3--3--|
E-|-------------------------------------|--------------------------3----------|


C Bb5 F5
E-|------------------|-----------------|-----------------|--------------------|
B-|------------------|-----------------|-----------------|--------------------|
G-|------------------|-----------------|-----------------|--------------------|
D-|-5--5-----------5-|-5-5--------53--|-3--3--------3---|-----------------5--|
A-|-3--3------1h3--3-|-3-3--------31--|-1--1--------1-3-|-3----------1h3--3--|
E-|--------3---------|-----------------|---------------1-|-1-------3----------|
Clean shirt news shoes and I dont know where I'm going to
Silk suit black tie I dont need a reason why.

G5
They come runnin' just as fast as they can.
C5
'cause ev'ry girl crazy 'bout a sharp dressed man.

Solo part 1 (best try)
E-|------------------|-----------------|-----------------|--------------------|
B-|-3/5-5-5-5-5------|-3/5-5-5-5-5-----|-5-53/5--5-53/5|-5-5-5-5-5----------|
G-|-3/5-5-5-5-5------|-3/5-5-5-5-5-----|-5-53/5--5-53/5|-5-5-5-5-5--------8-|
D-|-3/5-5-5-5-5------|-3/5-5-5-5-5-----|-5-53/5--5-53/5|-5-5-5-5-5----------|
A-|------------------|-----------------|-----------------|--------------------|
E-|------------------|-----------------|-----------------|--------------------|

E-|------------------|-----------------|-----------------|-----------------/6-|
B-|-8-8-8-7-8------7/|-8-8-------------|-8-8-7-8---8-----|-----------------/8-|
G-|---------8--5-----|-----98-5-----8-|---------8---8-5-|-----------------/8-|
D-|------------------|-----------------|-----------------|--------------------|
A-|------------------|-----------------|-----------------|--------------------|
E-|------------------|-----------------|-----------------|--------------------|

E-|-6-6-6-6-------/6-|-6-6-6-6------/6-|-6-6-6-6---------|--------------------|
B-|-8-8-8-8-------/8-|-8-8-8-8------/8-|-8-8-8-8-----8---|-5------------------|
G-|-8-8-8-8-------/8-|-8-8-8-8------/8-|-8-8-8-8---8---8-|-5------------------|
D-|------------------|-----------------|-----------------|-5------------------|
A-|------------------|-----------------|-----------------|-----------------10-|
E-|------------------|-----------------|-----------------|--------------------|

E-|-------------------------------------|-------------------------------------|
B-|-------------------------------------|-------------------------------------|
G-|-------------------------------------|--------------8----------------------|
D-|-10--10--10--8---10--10--10----------|--10--10--10-------------------------|
A-|-----------------------------10------|---------------------------------10--|
E-|-------------------------------------|-------------------------------------|

E-|-------------------------------------|-------------------------------------|
B-|-------------------------------------|-------------------------------------|
G-|-------------------------------------|-------------------------------------|
D-|-10--10--10--8---10--10--10----------|--10--8--------------------------/10-|
A-|-----------------------------10------|---------10----------------------/10-|
E-|-------------------------------------|-------------------------------------|

E-|------------------|-----------------|-----------------|--------------------|
B-|------------------|-----------------|-----------------|------------------4-|
G-|------------------|-----------------|-------------8---|--------------------|
D-|-10-10-10-10---/10|-10-10-10-10--/10|-10-10-10-10---10|-10-----------------|
A-|-10-10-10-10---/10|-10-10-10-10--/10|-10-10-10-10---10|-10-----------------|
E-|------------------|-----------------|-----------------|--------------------|

E-|-1---1---1---1----|-1----1----------|-----------------|------------------1-|
B-|---4---4---4---4--|---4----4----1---|-1--1---1-----1--|---1--4-------------|
G-|------------------|-------------0---|-----------------|-0------------------|
D-|------------------|-----------------|-----------------|--------------------|
A-|------------------|-----------------|-----------------|--------------------|
E-|------------------|-----------------|-----------------|--------------------|

E-|---1---1--1---1---|---1-------------|-----------------|--------------------|
B-|-4---4------4-----|-4---4---1----1--|-1--1-------1-1--|-1------0-----------|
G-|------------------|------------0----|------3--0-------|-0---3--0-----------|
D-|------------------|-----------------|-----------------|-----3--0-----------|
A-|------------------|-----------------|-----------------|--------------------|
E-|------------------|-----------------|-----------------|--------------------|

E-|-------------------------------------|-------------------------------------|
B-|-------------------------------------|-------------------------------------|
G-|-----10--8---------------------------|----10--8----------------------------|
D-|-----10--8--10-----------------------|----10--8--10---------------------5--|
A-|-------------------------------------|-----------------------------1h3--3--|
E-|-------------------------------------|--------------------------3----------|

Please mail any updates to :
[email protected]

Greetings,
_____ _____
| | | _ |
| ---| | _|-|
|_____|* |_____|*
Build a system that even a fool can use and only a fool will use it.




Ваше мнение



Капча