From: Martin Hermans
Guitar tab for "Legs" off the ELIMINATOR album by ZZ Top
Contact [email protected] with any questions, etc

LEGS
BY ZZ TOP
(I don't know the first 2 or three measures, which are a cool little intro)
----------------------|-----------------|------------------|------------------|
----------------------|-----------------|-8b---------------|------------------|
----------6-7h9-------|(9)p7-------7h9--|-----------7h9----|(9)p7-------x-----|
----------------------|-----------9-----|---------9--------|-------------x----|
----------------------|-----------------|------------------|--------------5h7-|
----------------------|-----------------|------------------|------------------|
----------------------|
----------------------|
---9----9--------9--9-|---------------------repeat----------------------->
---9----9--------9--9-|
-7-7----7--------7--7-|
-0--------------------|
\\
------------------|---------------------|------------------|------------------|
------------------|---------------------|------------------|------------------|
------------------|---------------------|------------------|------------------|
------------------|---------------------|------------------|------------------|
-5--------5-7-7-7-|---------------------|------------------|------------------|
------------------|---------------------|------------------|---------x-17\----|
------------------|---------------------|------------------|------------------|
------------------|---------------------|------------------|------------------|
---7----7-----7-7-|----7-----7------7-7-|-9-9----9-----9-9-|-9--9-----9-------|
-7-7----7-----7-7-|-7--7-----7------7-7-|-9-9----9-----9-9-|-9--9-----9-------|
-5------5-----5-5-|-5--------5------5-5-|-7-7----7-----7-7-|-7--7-----7-------|
------------------|---------------------|------------------|------------------|
----0-0-0-0--0-----------|
---/5-5-5-5--5-----------|
---/4-4-4-4--4-2b3b2-0h1-|
-------------------------|
-------------------------|
-0-----------------------|
------------------------|
--/5-5-5-5--5-----------|
-1/4-4-4-4--4-2b3b2-0h1-| repeat this measure two more times to bring
-2----------------------| yourself up to the first verse
------------------------|
------------------------|
Verses
legs she knows how to use them She never
-------------------|-------------------|-------------------|------------------|
-------------3/21--|-------------------|-------------------|------------------|
-------------------|-------------------|-------------------|------------------|
-------------------|-------------------|-------------------|------------------|
-------------------|-------------------|---------------5-7-|------------------|
-------------------|-------------------|-------------------|----------------x-|
begs she knows how to choose them She`s holdin
-------------------|-------------------|-------------------|------------------|
-------------------|-------------------|-------------------|------------------|
-------------------|-------------------|-------------------|------------------|
-------------------|-------------------|-------------------|------------------|
-2h4---------------|-------------------|---------------xh4-|------------------|
-------------------|-------------------|-------------------|------------------|
leg wonderin how to feel em Would you getbe
-------------------|-------------------|-------------------|------------------|
-------------------|-------------------|-------------------|------------------|
-------------------|-------------------|-------------------|------------------|
---------------x---|-------------------|-------------------|------------------|
-----------------7-|-------------------|---------------6h7-|(7)\4-------------|
-------------------|-------------------|--------------7----|------------------|
hind them if u could only find them She`s my
-------------------|-------------------|-------------------|------------------|
-------------------|-------------------|-------------------|------------------|
-------------------|-------------------|-------------------|------------------|
-------------------|-------------------|----------------2--|------------------|
---------------2-4-|-2-----x-x-x-x-x-x-|-4-4-------------4-|------------------|
--------------x----|-------------------|-------------------|------------------|
baby Shes my baby Yeah itsall
-------------------|-------------------|-------------------|------------------|
-5-----------------|-------------------|-------------------|------------------|
-2-----------------|-------------------|-4-----------------|------------------|
-2-----------------|-------------------|-4-----------------|------------------|
-0-----------------|-------------------|-2-----------------|------------------|
-------------------|-------------------|-------------------|------------------|
right
----0-0-0-0--0-----------|
---/5-5-5-5--5-----------|
---/4-4-4-4--4-2b3b2-0h1-|
-------------------------|
-------------------------|
-0-----------------------|
------------------------|
--/5-5-5-5--5-----------|
-1/4-4-4-4--4-2b3b2-0h1-| repeat this measure two more times to bring
-2----------------------| yourself up to the second verse
------------------------|
------------------------|
The second verse is pretty similar, but the lead guitar is different
Here is the solo
------------------|--------------------|----------------------|---------------|
-----------9------|--------------------|----------------------|---------------|
---------X---11---|--------------------|-9-9----------------9-|---9-----------|
-11------------11-|-----(11)\-----9-11-|-----11--------9------|-----11--------|
------------------|-----------9/11-----|-----------9/11--11---|---------------|
------------------|--------------------|----------------------|---------------|
------------------------|-----------------|-------2-2-----|
----------------------3-|--2--------------|-----------2---|
---------------2-4------|----2------------|---------------|
-4-----------X----------|------4----------|---4-----------|
------------x-----------|-----------------|---------------|
---------------------|-------------------------|-----------------------|
---3-3---2-----------|-------------------11----|-----------------------|
-------4----2-2b-----|-----------------9-11----|-11---9---x------------|
-----------------4---|(4)/11---------------11--|------------11--11--11-|
---------------------|---------------x---------|-----------------------|
---------------------|-------------------------|-----------------------|
----------------------|---------------------|-------------------|
----------------------|---------------------|------2---4--------|
----------------------|---------------------|------2---4--2-----|
-11--11--11-11--11--9-|-11----9-9-----------|--2/4---4------4---|
----------------------|----11-----11\9------|-------------------|
----------------------|-----------------12\-|-------------------|
-------------------|--------------------|---------------|
---------------2---|----5---4-----------|-----5---4-----|
----2--4-2---4-----|--4-----------------|---------------|
--4----------------|--4---4--4-4-4-4--4-|-4-4---4-------|
-------------------|--2---2--2-2-2-2--2-|-2-2---2-------|
-------------------|--------------------|---------------|
and then this again
----0-0-0-0--0-----------|
---/5-5-5-5--5-----------|
---/4-4-4-4--4-2b3b2-0h1-|
-------------------------|
-------------------------|
-0-----------------------|
------------------------|
--/5-5-5-5--5-----------|
-1/4-4-4-4--4-2b3b2-0h1-| repeat this measure two more times to bring
-2----------------------| yourself up to the second verse
------------------------|
------------------------|
Any questions or comments or requests for parts I didn't tab out?
Contact [email protected]




Ваше мнение



Капча