From: Martin Hermans
ZZ TOP
Gimme all your lovin - from "Eliminator"
I did not notate this in terms of proper timekeeping (esp for the solo)
In the places I did not indicate which note to bend to, bend one fret for
one "b" and two frets for 2 "b"'s
Rhythm guitar starts with
-----|
-----|
-----|
----5|
3-5-5|
----3|
-----|
and will repeat this over and over (with slight variations) until the chorus:
|--------------------------|-------------------------|
|------6--6--6--6----------|-------------------------|
|-(5)--5--5--5--3----------|-------------------------|
|-(5)--3--3--3--3----3--7--|-(7)--5--5-----5---------|
|-(3)--3-----3--3----3--3--|-(3)--3--3--3--3---------|
|--------------------------|-------------------------|
as the lead starts:
~~~~~~~~~~~~~~~~~~~~~~~~~~~~~
|----8b10--8---------------|--------------8---------------8--|
|----11----11--------------|----------------11-8-------------|
|--------------------------|---------------------10b12-------|
|--------------------------|---------------------------------|
|--------------------------|---------------------------------|
|--------------------------|---------------------------------|
~~~~~~~~~~~~~~~~~~~~~~~~~~~~~~~~~~
---------------------------|--------------8---------------8--|
-11B13---------------------|----------------11-8-------8-----|
---------------------------|---------------------10b12-------|
---------------------------|---------------------------------|
---------------------------|---------------------------------|
---------------------------|---------------------------------|

~~~~~~~~~~~~~~~~~~~~~~~~~~~~~~~~~~ I got to
---------------------------|--------------8---------------8--|
-11b13---------------------|----------------11-8-------8-----|
---------------------------|---------------------10b12-------|
---------------------------|---------------------------------|
---------------------------|---------------------------------|
---------------------------|---------------------------------|
have a shot of
~~~~~
--------------------------|----------------------------------|
--------------------------|----------------------------------|
--------------x-x-x-------|-5---------------5----------------|
-10---------------x-------|-5---------------5----------------|
------------------x-------|-3---------------3----------------|
--------------------8\----|----------------------------------|
what you got its oh so sweet You got to
--------------------------|----------------------------------|
--------------------------|----------------------------------|
-5-----------5------------|-----------------5----------------|
-5-----------5------------|-5---------------5----------------|
-3-----------3------------|-3-----3----3----3----------------|
--------------------------|----------------------------------|
make it hot like a boomerang I need a repeat
-----------------|------------------|------------------------|
-----------------|------------------|------------------------|
-5---------------|-5-------5--------|-5----------------------|
-5-------5-------|-5-------5--------|-5--------5-------------|
-3-------3-------|-3-------3--------|-3--------3-------------|
-----------------|------------------|------------------------|
---------------------|
---------------------|
-5-------------------|
-5------5----0-0-----|
-3------3------------|
------------------8\-|
Chorus
Gimme all your All your hugs and
lovin kisses too
-----------------|-----------------|-----------------|-----------------|
-----------------|-----------------|-----------------|-----------------|
-----------------|-----------------|-5-------5-------|-5-------3-------|
-----------------|---------x-------|-5-------5-------|-5-------5-------|
-----------------|-----------3/6-3-|---------3-------|-3-------3-0-3-0-|
-----------------|-----------------|-----------------|-----------------|
rhythm
-----------------|-----------------|-----------------|-----------------|
-----------------|-6-6-6-6-6-6-6-6-|---6-6-6---------|-----------------|
-3-3-3-3-3-3-3-3-|-5-5-5-5-5-5-5-5-|-5-5-5-5-3-------|---5-5-5-5-5-5-5-|
-3-3-3-3-3-3-3-3-|-3-3-3-3-3-3-3-3-|-5-3-3-3-3---3-3-|-7-5-5-5-5-5-5-5-|
-1-1-1-1-1-1-1-1-|-----------------|-3-------3---3-3-|-3-3-3-3-3-3-3-3-|
-----------------|-----------------|-----------------|-----------------|

Gimme all your Don't let up until
lovin we're through. You got
-----------------|-----------------|-----------------|-----------------|
-----------------|-----------------|-----------------|-----------------|
-----------------|-----------------|-5-------5-------|-5-------5-------|
-----------------|-----------------|-5-------5-------|-5-------5-------|
-----------------|---------3-3-6-3-|---------3-------|-3-------3----13\|
-----------------|-----------------|-----------------|-----------------|
-----------------|-----------------|-----------------|-----------------|
-3-----------3-3-|-1-1-1-1-1-1-1-1-|---6-6-6-3---6-6-|-----------------|
-3-3-3-3-3-3-3-3-|-2-2-2-2-2-2-2-2-|-5-5-5-5-3---5-5-|---------------5-|
-3-3-3-3-3-3-3-3-|-3-3-3-3-3-3-3-3-|-5-3-3-3-3---3-3-|-7-5-5-5-5-3-5-5-|
-1-1-1-1-1-1-1-1-|-3-3-3-3-3-3-3-3-|-3-------3---3---|-3-3-3-3-3-3-3-3-|
-----------------|-1-1-1-1-1-1-1-1-|-----------------|-----------------|

whip it up and hit me like a ton
of lead If I
-----------------|-----------------|-------------------|-----------------|
-----------------|-----------------|-------------------|-----------------|
-----------------|-------5---------|-5------5----------|-5-------5-------|
-----------5-----|-5-----5---------|-5------5----------|-5-------5-------|
---------333-----|-3-----3---------|-3------3----------|-3-------3-------|
-----------------|-----------------|-------------------|-----------------|
-----------------|-----------------|-------------------|-----------------|
---6-6-6-3-------|-----------------|----6-6-6-3--------|-----------------|
---5-5-5-3-------|-------5-5-------|----5-5-5-3--------|---------5---5-5-|
---3-3-3-3---3-3-|-7-5-5-5-5-------|----3-3-3-3----3-3-|-7-5-5-5-5---5-5-|
---3-3---3---3-3-|-3-3-3-3-3-------|------3---3----3-3-|-3-3-3-3-3---3-3-|
-----------------|-----------------|-------------------|-----------------|
blow my top Will you let it go to your head?
-----------------|-----------------|-------------------|-----------------|
-----------------|-----------------|-------------------|-----------------|
-5-------5-------|-5-------5\3-----|-5--------5--------|---------5---0---|
-5-------5-------|-5-------5\3-----|-5--------5--------|-5-------5---00--|
-3-------3-------|-3-------3-------|-3--------3--------|-3-------3-33----|
-----------------|-----------------|-------------------|---------------15\|
-----------------|-----------------|-------------------|-----------------|
---6-6-6-3-------|-----------------|----6-6-6-3--------|-----------------|
-5-5-5-5-3-------|-----------------|----5-5-5-3--------|-----------------|
-5-3-3-3-3---3-3-|-7-5-5-5-5-------|----3-3-3-3----3-3-|-7-5-5-5-5-5-5-5-|
-3---3---3---3-3-|-3-3-3-3-3-------|------3---3----3-3-|-3-3-3-3-3-5-3-3-|
-----------------|-----------------|-------------------|-----------------|
Gimme all your All your hugs and
lovin kisses too
-----------------|-----------------|-------------------|-----------------|
-----------------|-----------------|-------------------|-----------------|
-----------------|-----------------|-5--------5--------|-5-----3---------|
-----------------|---------x-------|-5--------5--------|-5-----5---------|
-----------------|-----------3/6-3-|-3--------3--------|-3-----3---0-3-0-|
-----------------|-----------------|-------------------|-----------------|
-----------------|-----------------|-------------------|-----------------|
-----------------|-6-6-6-6-6-6-6-6-|---6-6-6-----------|-----------------|
-3-3-3-3-3-3-3-3-|-5-5-5-5-5-5-5-5-|-5-5-5-5-3---------|---5-5-5-5-5-5-5-|
-3-3-3-3-3-3-3-3-|-3-3-3-3-3-3-3-3-|-5-3-3-3-3---3-3---|-7-5-5-5-5-5-5-5-|
-1-1-1--1-1--1-1-|-----------------|-3-------3---3-3---|-3-3-3-3-3-3-3-3-|
-----------------|-----------------|-------------------|-----------------|
Gimme all your Don't let up until
lovin we're through
-----------------|-----------------|-------------------|-----------------|
-----------------|-----------------|-------------------|-----------------|
-----------------|-----------------|---------5\3-------|-5-----5---------|
-----------------|-----------------|-5-------3-----x-x-|-5-----5-------5-|
-----------------|-------3-6-3-6-66|-3-----------------|-3-----3-------5-|
-----------------|-----------------|-------------------|-----------------|
-----------------|-----------------|-----------------|-----------------|
-3-----------3-3-|-1-1-1-1-1-1-1-1-|---6-6-6-3---6-6-|-----------------|
-3-3-3-3-3-3-3-3-|-2-2-2-2-2-2-2-2-|-5-5-5-5-3---5-5-|-----------------|
-3-3-3-3-3-3-3-3-|-3-3-3-3-3-3-3-3-|-5-3-3-3-3---3-3-|-7-5-5-5-5-5-5-5-|
-1-1-1-1-1-1-1-1-|-3-3-3-3-3-3-3-3-|-3-------3---3---|-3-3-3-3-3-3-3-3-|
-----------------|-1-1-1-1-1-1-1-1-|-----------------|-----------------|
Solo:
Rhythm repeats this for most of it
-----------------|
-----------------|
-----------------|
-5-5-5-5-5-5-5-5-|
-3-3-3-3-3-3-3-3-|
-----------------|
-----------------|-----------------|-------------------|
-----------------|-----------------|-----------------4-|
-3-3---3-3---3-3-|---3-3---3-5-----|---------3-----5---|
-3-3---3-3---3-3-|---3-3---3-5-6-5-|---5-5-5-------5---|
-----6b----6b----|-6b----6b----6-3-|---3-3-3-----------|
-----------------|-----------------|-------------------|
~~~~~
-----------------|-----------------|-------------------|
----4b-----------|----8------------|----------------3/5|
-------5-5--0-3/5|-----10\9--8b-10-|-8-8b-----------3/5|
------------0-3/5|---------------10|----8-10--------3/5|
-----------------|-----------------|-------------------|
-----------------|-----------------|-------------------|
~~~~ ~~~~ ~~~~~
--------------------|--------------------|--------------------|
---5------8---------|--------------------|--------------------|
-------------7/8-9--|-----------8b-8b----|-----------8b-8b----|
---5-5------------10|---8-10-10-------10-|---8-10-10------10--|
--------------------|-----10-10----------|-----10-10----------|
--------------------|--------------------|--------------------|
-------------------|----8-8-----8---8-8-|11b+bb-8----------------------|
-----5-6-6-5----/11|b-------11b---8-8-8-|10b+bb-8-8--------------------|
---5-5------5------|--------------------|-----------10bb----10bb-12b10-|
---5-5-7-7-5-------|--------------------|------------------------------|
-------------------|--------------------|------------------------------|
-------------------|--------------------|------------------------------|
------------------|----------------------|---------------------------|
------------------|----------------------|-----------------------0-9/|
h8-------8--------|----------------------|-------8---------------0-9/|
--------8---------|--------------10-8----|-8-------10----------------|
---10-10---10\8-6-|b7-----------------10-|---10----------------------|
------------------|-----8----------------|---------------------------|
----8------11-8------|---10-10-13----13-13-13\|11b12---------8-11b12----8----|
/10------------10-10/|12-12----12----12-12-12\|10b11---------8-10b11----8----|
/10---------------10/|12----------------------|------10b12----------------10-|
------10-------------|------------------------|------------------------------|
---------------------|------------------------|------------------------------|
---------------------|------------------------|------------------------------|
-----------------------|
-----8-------10--------|
-----8-8-10--10-8------|
-------------10---10---|
------------------10-0-|
-----------------------|
-----------------|---------------------|
-----------------|--------3-----3-3----|
---3-3---3-3---3-|-3----3-3-----3-3----|
---3-3---3-3---3-|-3----3-3-----3-3----|
-6-----6b----6b--|---6b-----6b------6b-|
-----------------|---------------------|
~~~~~~~~~
-----------------------|----------------------|
-----------------------|----------------------|
--------------3---3----|-5----8b--5---------0-|
--------------3-5----5-|-5-5----------------0-|
-------1/3----3--------|----------------------|
-8-88\3-----0----------|----------------------|
-----------------|---------------------|-------------------|
-----------------|--------3-----3-3----|----------------4--|
---3-3---3-3---3-|-3----3-3-----3-3----|----5-5-5-5---5----|
---3-3---3-3---3-|-3----3-3-----3-3----|-------------------|
-6-----6b----6b--|---6b-----6b---------|----3-3-3-3---3----|
-----------------|------------------11\|-------------------|
Then the third verse kicks in and then a final guitar solo.
If you need any other part of this song, which I left out or didn't do
enought detail on, write me at
[email protected]
(Send me comments and other requests, too!)


Ваше мнение



Капча