Zz Top - Blue Jean Blues
Submitted By: s g/f
EMail: [email protected]
OK, here we have a ten-bar blues in Bminor. The song is written for
two guitars. (play it very slowly, the song takes almost
four minutes to get through about 40 bars of music).
Here is the rhythm guitar:
intro (play once)
-----------9---------|---------------|---------------|---------------|
---------------------|-3-------------|-3-------------|-3-------------|
---------------------|-4-------------|-4-------------|-4-------------|
---------------------|-4-------------|-4-------------|-4-------------|
-----7-8-9---------0-|-2-----------0-|-2-----------0-|-2-----------0-|
----------------3----|----------3----|----------3----|----------3----|

Progression (play 3 times)
|---------------|---------------|---------------|---------------|
|-3-------------|-3-------------|-3-------------|-3-------------|
|-4-------------|-4-------------|-4-------------|-4-------------|
|-4-------------|-4-------------|-4-------------|-4-------------|
|-2-----------0-|-2-----------0-|-2-----------0-|-2-------------|
|----------3----|----------3----|----------3----|------------2--|
----7----------|-----7----------|---------------|---------------|
----8----------|-----8----------|-3-------------|-3-------------|
----9----------|-----9----------|-4-------------|-4-------------|
----9----------|-----9----------|-4-------------|-4-------------|
----7----------|-----7--------0-|-2-----------0-|-2-------------|
-0---------2-1-|-0----------3---|----------3----|------------3--|

---------------|----------------|
---------------|----------------|
---------------|-4--------------|
---------4-----|------0---------|
-------4-------|---------2----0-|
-2-------------|------------3---|
Ending:
-------------| |------------|
-------------| |-3----------|
-------------|




Ваше мнение



Капча