The World Goes Round by Zwan (http://www.zwan.com/)
I don't really remember from what show it is from, I downloaded it in mp3 form.
Tabbed by Patrick Vacek ([email protected])
Standard Tuning
Intro, Verse, and Outro
E E5? A Aadd9
e|---0---------0------0-|
B|---0---------2------2-|
G|---1------4--2------4-|
D|---2------2--0------2-|
A|---2------2--0------0-|
E|---0------0-----------|
Chorus
A G# F# A G# A
e|-----------------------|
B|-----------------------|
G|-----------------------|
D|---7-6--4----7-6--7----|
A|---7-6--4----7-6--7----|
E|---5-4--2----5-4--5----|
I'm not sure about that E5 chord thing, so just keep playing an E if
you don't like it.
At the end of the first and third chorus (I think), skip the last A and go right
back to the verse.
Any comments or questions? E-mail me!





Ваше мнение



Капча