Artist - Zwan
Song - Settle Down (Intro Only)
Album - Mary Star Of The Sea
Transcribed By - Danny Casey-Tancock

STANDARD TUNING (EADGBe)

---------------------------------------------------------------------
---------------------------------------------------------------------
---------------------------------------------------------------------
-----7-----7---7-------7-----7---7-----7-----7---7-----7-----7---7---
-5-5---5-5---5-----4-4---4-4---4---0-0---0-0---0---0-0---0-0---0-----
---------------------------------------------------------------------

---------------------------------------------------------------------
---------------------------------------------------------------------
---------------------------------------------------------------------
---------------------------------------------------------------------
-----5-----5---5-----5-----5---5-------4-----4---4-------7-----7---7-
-3-3---3-3---3---2-2---2-2---2-----5-5---5-5---5-----5-5---5-5---5---





Ваше мнение



Капча