Intro:
..Rhythm.
F#m C#m B *B
F#m C#m B B
..Lead.
E|-----------------------------14p12------12----12h14---14b-14~---12--
B|------------12-12h14--------------12-14----14-----------------------
G|--9h11--------------------------------------------------------------
D|--------------------------------------------------------------------
A|--------------------------------------------------------------------
E|--------------------------------------------------------------------
*Begin lead here
Verse:
F#m C#m B B
If only I die just once in my life
F#m C#m B B
If only I try to take a guess, to be the best.
B(type2) F#m B B
A feeling I hide that runs this world, that keeps us alive
F#m C#m B B
I want you to climb with me-
Chorus:
F#m C#m B B
Until I die of a broken heart a broken heart
F#m C#m B B
Until I die of a broken heart a broken heart
F#m C#m B B
Until I die-
Verse:
F#m C#m B B
The heart of a child is in your hands now
F#m C#m B B
So let's see you smile 'cause I'm not impressed with your loneliness
B(type2) F#m B B
And it's been a while since you forgave all your changes made
F#m C#m B
So let's count the miles togther
Chorus:
F#m C#m B B
Until I die of a broken heart a broken heart
F#m C#m B B
Until I die of a broken heart a broken heart
F#m C#m B B
Until I die of a broken heart a broken heart
F#m C#m B B
Until I die-
Solo:
..Rhythm.
Asus2 B Asus2 B
F#m C#m B B
F#m C#m B *let ring
..Lead.
E|-12------12-------12------12------12------12------12------12------12-
B|----12h14----12h14---12h14---12h14---12h14---12h14---12h14---12h14---
G|---------------------------------------------------------------------
D|---------------------------------------------------------------------
A|---------------------------------------------------------------------
E|---------------------------------------------------------------------
*Gradually increase volume to full
E|------14------14------14------14------14------14------14------14--
B|-14h16---14h16---14h16---14h16---14h16---14h16---14h16---14h16----
G|------------------------------------------------------------------
D|------------------------------------------------------------------
A|------------------------------------------------------------------
E|------------------------------------------------------------------
Gradually increase volume to full
E|------12------12------12------12------12------12------12------12--
B|-12h14---12h14---12h14---12h14---12h14---12h14---12h14---12h14----
G|------------------------------------------------------------------
D|------------------------------------------------------------------
A|------------------------------------------------------------------
E|------------------------------------------------------------------
Gradually increase volume to full
E|------14------14------14------14------14------14------14------14--
B|-14h16---14h16---14h16---14h16---14h16---14h16---14h16---14h16----
G|------------------------------------------------------------------
D|------------------------------------------------------------------
A|------------------------------------------------------------------
E|------------------------------------------------------------------
Gradually increase volume to full
E|-14h16~--14---14-/16--14--12~12~12~-----------------------------------
B|-----------------------------------------14--12-12h14~----------------
G|----------------------------------------------------------r9---7--7/9b
D|----------------------------------------------------------------------
A|----------------------------------------------------------------------
E|----------------------------------------------------------------------
Verse:
F#m C#m B B
If only I die just once inside
B(type2) F#m B B
If only to try together
Chorus:
F#m C#m B B
Until I die of a broken heart a broken heart
F#m C#m B B
Until I die of a broken heart a broken heart
F#m C#m B B
Until I die of a broken heart a broken heart
F#m C#m B B *End on this chord (let ring)
Until I die-
Chords:
E|-----0-------2----------
B|-2---5---0---4--------0-
G|-2---6---4---4--------2-
D|-4---6---4---4--------2-
A|-4---4---2---2--------0-
E|-2----------------------
F#m C#m B B(type2) Asus2
Symbols:
..h - hammer
..p - pull of
..b - bend
..r - release
../ - slide
..~ - vibrato





Ваше мнение



Капча