Intro/Verse:
e----------0-----------------------
B------3-----3---3-----3-------3---
G----2---------2-----0---0---0---0-
D--0-----0---------2-------4-------
A----------------------------------
E----------------------------------

e----------5---------------5-------
B------3-----3---3-----3-----3---3-
G----0---0-----0-----0---0-----0---
D--5---------------5---------------
A----------------------------------
E----------------------------------

here comes my faith to carry me on
blah...not a...blah(?)
fight to stay strong

Pre-chorus:
G Bm G
so I stand accused of playing on
Bm A G
i know it's wrong, so i gear my strength
Bm E
in my heart to take these shames
G
and hope they dissolve
Bm
for i will scar
A
i must shine

the season is mine

Chorus: play intro riff over this

a lyric, a time, a crusade, a lie
a minute afraid, a road without end
a lyric, a time, a crusade, a lie
a minute afraid, a road without end

A G
so here is the view
Bm
i curse your brow
E
i laid in your room

for you to get out

Intro riff break:

you'll never get out

Next verse,prechorus, and chorus: same as first

'cause i hear you cry without an inside
[?]
i need you as my way
across my life to spend these years
create a new thought
for my heart gives my strength
i offer my heart to take these shames
and hope they dissolve
i must shine
'cause i will scar
the season all mine

chorus





Ваше мнение



Капча