Riff 1
(1)----------------------------/
(2)----------------------------/
(3)----------------------------|
(4)----------------------------/
(5)-------2---2-1-0------------/
(6)--0-3---0--------3-3-5-2-0--/

Riff 2
(1)----------------------------/
(2)----------------------------/
(3)----------------------------/
(4)-------2---2-1-0------------/
(5)--0-3---0--------3-3-5-2-0--/
(6)----------------------------/

Riff 3
(1)------------------------------------------------------------------/
(2)------------------------------------------------------------------/
(3)------------------------------------------------------------------/
(4)------------------------------------------------------------------/
(5)--2--2-5--5-2--0--0-3--3-0--2-1-0------2-----2-1-0--2-2-2-5-2-0-2-/
(6)-----------------------------------0-3---0------------------------/

Intro: H, A7, E

Riff 1
Проснулся я ночью, часа в 2
Riff 1
И сразу понял: ты ушла от меня
Riff 2
Ну и что? Ну и что,
Riff 1
Что ты ушла от меня...
Riff 3
Все равно - опять напьюсь.
Шуба-дуба (подумал я) блюз!




Ваше мнение



Капча