КУПЛЕТ 1:
Am D Em
мы запускаем в космос корабль
Am D Em
включается протянутый кабель
Am D
планета голубая
G C
пока мы исчезаем
Am Em
пока пока

Am D Em
вокруг темно и можно разбиться
Am D Em
не хочется но это случится
Am D
алло не отвечали
G C
мы быстро исчезали
Am C
мы быстро исчезали
C H
и с нами исчезали
------------------------------------------
припев:
C D
звезды в звездолетах
Hm Em
храбрые пилоты
C Am Em
расставанье маленькая "с"
C D
провода искрятся
Hm Em
нам не удержаться
C Am Em
расставанье маленькая "с" 3 раза
------------------------------------------
В припеве играется перебор на второй гитаре следующий:
C D Hm Em C Am Em
E--3-----5-----7-----7----|-3-----5-----7---7---7--|
H---5-5---7-7---7-7---8-8-|--5-5---5-5---8---8---8-|
G----5-----7-----7-----9--|---5-----5-----9---9----| 2 раза
D-------------------------|------------------------|
A-------------------------|------------------------|
E-------------------------|------------------------|

Куплет2
я нажимаю первую слева
толчок прощай созвездие девы
садишься и включаешь
ты точно улетаешь
пока пока

антенны выше крыши антенны
посадка высадка на измены
ломались сигареты
мы потерялись где-то
мы потерялись где-то
мы потерялись где-то
------------------------------------------
припев
------------------------------------------
КУПЛЕТ3
мы запускаем в космос корабль
включается протянутый кабель
планета голубая
пока мы исчезаем
пока пока

вокруг темно и можно разбиться
не хочется но это случится
алло не отвечали
мы быстро исчезали
мы быстро исчезали
и с нами исчезали
------------------------------------------
припев:
звезды в звездолетах
что же вы пилоты
расставанье маленькая "с"
провода искрятся
нам не удержаться
расставанье маленькая "с"
------------------------------------------
Извините подбирал на акустике не судите строго

solo
C D Em C D Em C D Em C D Em
E-----------------------------------|-------------------------------------|
H-----------------10-8--8-8-7-------|---------------10-8--8--8--7-8-10-12-|
G----7-7-----7--7-------------9-7-9-|---7-7----7--7---------9-------------|
D--9--------9--9--------------------|-9-------9--9------------------------|
A-----------------------------------|-------------------------------------|
E-----------------------------------|-------------------------------------|

E------7/10---7/10-7/10---14-12--12-12-14-12-10-12-|
H--------------------------------------------------|
G----7---------------------------------------------|
D--9-----------------------------------------------|
A--------------------------------------------------|
E--------------------------------------------------|

E-12-10/12--10/12-12/10-10/12-12p10h12--12-10----10----------------------------|
H---------------------------------------------12----12-10--12-10----10---------|
G----------------------------------------------------------------12----12-11-9-|
D------------------------------------------------------------------------------|
A------------------------------------------------------------------------------|
E------------------------------------------------------------------------------|

E-------------7------------------------------------|----------------------------------------|
H------8--8-8-8-8-10-10-8-8-8-10-8-7---10-10p8-7---|------------------10-8--8--8--7-8-10-12-|
G----7---9-9-------9--9---9----9-----9------------9|------7--7---7--7---------9-------------|
D--9-----------------------------------------------|9--9--9-------9------------------------|
A--------------------------------------------------|----------------------------------------|
E--------------------------------------------------|----------------------------------------|
C Am Em C Am Em
E----------------------------|
H---8-8-7---------8-8-7------|
G---9----9-7-9----9-----9-7-9|
D----------------------------|
A----------------------------|
E----------------------------|




Ваше мнение



Капча