INTRO:
E|------------------7--9-|12-12-12-12-12-12-12-12|12-10------------------|
B|---------------9-------|12-12-12-12-12-12-12-12|12----12-11-10---------|
G|-----------------------|-----------------------|---------------12-9----|
D|-----------------------|-----------------------|---------------------12|
A|-----------------------|-----------------------|-----------------------|
E|-----------------------|-----------------------|-----------------------|

E|-----------------------|-----------------------|-----------------------|
B|-----------------------|12-12-12-12----12------|------10-------10------|
G|12----9--12----9--12---|-----------------------|8--9-----8--9-----8--9-|
D|-----------------------|-----------------------|-----------------------|
A|-----------------------|-----------------------|-----------------------|
E|-----------------------|-----------------------|-----------------------|

E|-----------------------|-----------------------|-----------------------|
B|10-------10-------10---|9--------9-------------|9--------9-------------|
G|---8--9-----8--9-----8-|9--------9--------7--9-|9--------9-------------|
D|-----------------------|9--------9-------------|9--------9-------------|
A|-----------------------|-----------------------|-----------------------|
E|-----------------------|-----------------------|-----------------------|

E|------7--------7-------|------5--------5-------|0-----0-----2----------|-
B|6--7-----6--7-----6--7-|4--5-----4--5-----4--5-|0-----0-----4----------|--
G|-----------------------|-----------------------|1-----1-----4----------|--
D|-----------------------|-----------------------|2-----2-----4----------|--
A|-----------------------|-----------------------|2-----2-----2----------|--
E|-----------------------|-----------------------|0-----0-----2-----2--2-|2-
FILL-IN:
E|------12-------12------|12-------12-------12---|-----------------------|
B|11-12----11-12----11-12|---11-12----11-12------|10---------------------|
G|-----------------------|-----------------------|---12----9--12----9--12|
D|-----------------------|-----------------------|-----------------------|
A|-----------------------|-----------------------|-----------------------|
E|-----------------------|-----------------------|-----------------------|




Ваше мнение



Капча