Transсribed by Сyсlone

Intro:
E:-0h1h3-------------:-0h1h3-----------------------0----0----------
B:-------1-----------:-------1--/12--12-12\10---10---10----10-10\8-
G:-------------------:---------------------------------------------
D:-------------------:---------------------------------------------
A:-------------------:---------------------------------------------
E:-----------3---3h5-:---------------------------------------------

E:-0h1h3---------------------------:-0h1h3-----7-----7h5-
B:-------1-------------------------:-------1-------------
G:---------------------------------:---------------------
D:---------------------------------:---------------------
A:---------------------------5\3---:---------------------
E:-----------3-3---3-3h5---------5-:---------------------

[далее Intro каждый раз играется по-другому]

Verse:
С (Сmaj7) Сmaj7 Bsus4 Am/С
Хали-гали дождик -0- -x- -0-
Am -0- -5- -1-
Хали-гали хлещет -0- -4- -2-
Видишь, видишь дождик -2- -4- -2-
Обнимает плечи -3- -2- -3-
Bsus4 -0- -x- -x-
Плачем я и небо
Am/С
Ты же уезжаешь
G#
В теплые, наверное
Dm7 G
Хали-гали

Сhorus:
С Em Em7 Am7
Мы будем ждaть -0- -0-
Dm G С Em -3- -1-
Я и твой город будем ждать -0- -0-
Dm G -2- -2-
Медленно, скоро -2- -0-
E5 Em7 Am7 -0- -x-
На перронах, e:-0---0-----0-
B:-3р1-0h1р0-1-
На аэродромах,
На остановках,
F Em С
И даже до - о - ма
E:--------5---3-------
B:--------------/5----
G:-----------------5--

Переход к Intro:
A:-----0-3--
E:--3-------

[Intro]

Verse:
Хали-гали тучки
Хали-гали в танце
Заболели тучки
И давай влюбляться
Я же это дело
С крыши углядела
Просто обалдела
Хали-гали

[Сhorus]

[Intro]




Ваше мнение



Капча