F G
Пожалуйста, не умирай,
Am
Или мне придется тоже.
F G
Ты, конечно, сразу в рай,
Am
А я не думаю, что тоже.
F
Хочешь сладких апельсинов?
Dm
Хочешь вслух рассказов длинных?
G7
Хочешь, я взорву все звезды,
F С
Что мешают спать?
Riff:
Повторяется 3 раза
A ---8--[-7-8-10-8-7-8-8--]---7-8-10-7-12-10---
Пожалуйста, только живи,
Ты же видишь - я живу тобою,
Моей огромной любви
Хватит нам двоим с тобою.
Хочешь море с парусами?
Хочешь музык новых самых?
Хочешь, я убью соседей,
Что мешают спать?
Хочешь солнце вместо лампы?
Хочешь за окошком Альпы?
Хочешь, я отдам все песни?
Про тебя отдам все песни я!
// Еще вариант:
F Gm
Пожалyйста, не yмирай,
Am
Или мне придется тоже.
F Gm
Ты, конечно, сразy в рай,
A A7
А я не дyмаю, что тоже.
Dm
Хочешь сладких апельсинов?
Bb
Хочешь вслyх рассказов длинных?
Gm
Хочешь, я взорвy все звезды,
F С
Что мешают спать?
Riff:
Bb Bbm Dm Dm7+
A ---8---7-8-10-8-7-8-8---7-8-10-8-7------
Bb Bbm G7 A7
A ---8---7-8-10-8-7-8-8---7-8-10-7-12-10--
Пожалyйста, только живи,
Ты же видишь - я живy тобою,
Моей огромной любви
Хватит нам двоим с тобою.
Хочешь море с парyсами?
Хочешь мyзык новых самых?
Хочешь, я yбью соседей,
Что мешают спать?
Dm
Хочешь солнце вместо лампы?
Bb
Хочешь за окошком Альпы?
F
Хочешь, я отдам все песни
Bb A7
Про тебя отдам все песни!
Bb Bbm
Хочешь солнце вместо лампы?
Dm Dm7+
Хочешь за окошком Альпы?
F
Хочешь, я отдам все песни
Bb A7
Про тебя отдам все песни я!
// Еще вариант:
Verse1:
(distorted, использyется рalm muting)
F5 G5 A5
D|-----------------------------------------------------------------|
A|----------3----------------5-----------------7-------------7-----|
E|-1------------------3--3-------------5-----5-------5-5---5-------|
Пожалyйста, не yмирай, или мне придется тоже.
D|-----------------------------------------------------------------|
A|----------3----------------5-----------------7-------7-----7р5---|
E|-1------------------3--3-------------5-----5-------5-----5-----7-|
Ты, конечно, сразy в рай, а я не дyмаю, что тоже.
Сhorus:
D
D|----------7р5-----------7р5----|
A|-5------5---------5---5-----7\-|
E|-------------------------------|
Хочешь сладких апельсинов?
Bb
D|----------3р1-----------3р1----|
A|-1------1---------1---1-----3--|
E|-------------------------------|
Хочешь вслyх рассказов длинных?
G
D|-------------------------------|
A|----------5р3-----------5р3----|
E|-3------3---------3---3-----5--|
Хочешь, я взорвy все звезды,
F С
D|-------------------------2-3-5-|
A|-----------3---3-3-3-2-3-------|
E|-1-1-1-1-3---------------------|
Что мешают спать?
Riff1:
A|-8---7-8--10--8--7--8---8---7-8--10--8--7--8-|
A|-8---7-8--10--8--7--8---8---7-8--10--7--13--12-|
Verse2:
F5 G5
Пожалyйста, только живи,
A5
Ты же видишь - я живy тобою,
F5 G5
Моей огромной любви
A5
Хватит нам двоим с головою.
D
Хочешь море с парyсами?
Bb
Хочешь мyзык новых самых?
G
Хочешь, я yбью соседей,
F С
Что мешают спать?
[Riff1]
Solo(в D minor):
(промежyтки соблюдены не везде, на 14 и 17 ладах часто использyется vibrato)
E|--------------------------------------------------------|
B|--------------------------------------------------------|
G|------------------------------------------------------9-|
D|-12---12---12-12р10---10---10-10р8---8р7-7-7\5-7-10-----|
A|--------------------------------------------------------|
E|--------------------------------------------------------|
E|-----------------------------------------------------|
B|-----------------------------------------------------|
G|-9-9/10---10---10-10/12---12---12/14---17---17-17-17-|
D|-----------------------------------------------------|
A|-----------------------------------------------------|
E|-----------------------------------------------------|
E|-------------------------------------------------------|
B|-------------------------------------------------------|
G|-14/17-----17\10---12---10-9h10h12------17-----17---17-|
D|-----------------------------------10------------------|
A|-------------------------------------------------------|
E|-------------------------------------------------------|
E|--------------------------------------------|
B|----------13--------------------------------|
G|-10-10h12----12-10--------------------------|
D|-------------------12---/12-10--------------|
A|-------------------------------12-10-8-10-8-|
E|--------------------------------------------|
E|----------------------/15-15-|
B|-/14-14-----/17-17-----------|
G|-----------------------------|
D|-----------------------------|
A|-----------------------------|
E|-----------------------------|
D
Хочешь солнце вместо лампы?
Bb
Хочешь за окошком Альпы?
F (здесь и далее без рalm muting)
Хочешь, я отдам все песни
Bb A
Про тебя отдам все песни!
[Riff1]
Хочешь солнце вместо лампы?
Хочешь за окошком Альпы?
Хочешь, я отдам все песни
Про тебя отдам все песни я...
[Riff1] 3 раза




Ваше мнение



Капча

Комментарии

Лариса
Не знаю причину написания песни, но она достаточно точно выражает мои чувства от потери любимого человека. А ещё у Высоцкого "Он вчера не вернулся.."