Нm |X24432|
A |XX2220|
Am |5775XX|
Em |0220XX| (на самом деле вместо Em - distorted oрen E string :)

IntroRiff:
E|------------------0--0--0-|
B|------------------2--2--2-|
G|-3/4--4р3---------2--2--2-| x4
D|-----------5-4-0--2--2--2-|
A|--------------------------|
E|--------------------------|

Em
А девушка пьяна
Нm
Уже который день
A
По уши влюблена
Em
В чужие прелести
Зеленая волна
Накрыла ее тень
Размыла поцелуй
Что помнят челюсти

Припев:
G
Кого-то ждет вокзал,
Н7
Кого-то ждут домой
Am
Ее никто не ждет
G D7
Не хочет ее тела
G
Не проще ли сказать
Н7
Ей проще быть немой
Am
Когда она придет
N.с.
А девушка созрела

(distorted)
E|----------------------|--------------------|
B|----------------------|--------------------|
G|----------------------|-5-5--4-------------|
D|----------------------|---------7--5--4--5-|
A|-----3---2----------0-|--------------------|
E|-0-----------3---4----|--------------------|
Ко го то ждет вокзал, Кого-то
E|----------------------|--------------------|
B|----------------------|--------------------|
G|----------------------|-4-4--2-------------|
D|----------------------|---------5--4--3--4-|
A|----------------------|--------------------|
E|----------------------|--------------------|
Ждyт домой Ее
E|----------------------|--------------------|
B|----------------------|--------------------|
G|----------------------|-4-4--2-------------|
D|----------------------|---------5--4--3--4-|
A|----------------------|--------------------|
E|----------------------|--------------------|
Никто не ждет Не
E|----------------------|--------------------|
B|----------------------|--------------------|
G|----------------------|--------------------|
D|------------------5---|---------4----------|
A|----------------------|--------------------|
E|----------------------|--------------------|
Хочет ее тела

IntroRiff x4

Ей радиоэфир
Приветы передал
Заказанные ей
Самою же себе
Засмотренный до дыр
М-м-м-м... журнал
В пустой квартире млеет,
Саму себя любя

Соло на синтезаторе (2 раза):
E|----15-14-12----12-|----15-14-12----14-|-15-15-14-12-----------------|
B|-12----------15----|-12----------15----|-----------------13-----12---|

Припев.




Ваше мнение



Капча