band:zao
song:witch hunter
album:(self-titled)
intro (clean)
----------------------------------------------------------|
----------------------------------------------------------|
----------------------------------------------------------|
----------------------------------------------------------|
----0-----0-----0-----0--------0--------------------------|
-5-----5-----5-----5-----5--------------------------------|
----------------------------------------------------------|
----------------------------------------------------------|
----------------------------------------------------------|
----------------------------------------------------------|
----8-----8-----8-----8-------8---------------------------|
-5-----5-----5-----5-----5--------------------------------|
chorus (distortion)
----------------------------------------------------------|
----------------------------------------------------------|
----------------------------------------------------------|
-2-2--x--7---7-7-7-7-7-7-7---5-5--55/-10-10-10-10-10-10---|
-2-2--x--7---7-7-7-7-7-7-7---5-5--55/-10-10-10-10-10-10---|
-0-0--x--5---5-5-5-5-5-5-5---3-3--33/-12-12-12-12-12-12---|




Ваше мнение



Капча