Song: The Ghost Psalm
Artist: Zao
Album: Liberate te ex Inferis (Save Yourself From Hell)
Tuning: Drop C (Drop all strings a full note, and then
the bottom string another full note)
Effects: Standard distortion pedals (Boss DS-1)
Guitars: 2 guitars, With at least one of them being 24 frets
Tabbed by: Mike Buchanan
Email Questions to: [email protected]
Legend: = Slide up
/ = Slide down
^ = Bend
* = Harmonic
M = Palm mute
I got a little lazy towards the end...
But The entire song is here.
Part 1:
D--------------------------------------------------||
A--------------------------------------------------||
First F-13-------13-13---------13-------13-13-13---------||Repeat
Guitar C----00000-------0000000----00000----------0000000-||Six
G-11-00000-11-11-0000000-11-00000-11-11-11-0000000-||Times
C----00000-------0000000----00000----------0000000-||
MMMMM MMMMMMM MMMMM MMMMMMM
D--------------------------------------------------||
A--------------------------------------------------||
Second F--------------------------------------------------||Repeat
Guitar C----03030-------0303030----03030----------0303030-||Six
G----03030-------0303030----03030----------0303030-||Times
C----03030-------0303030----03030----------0303030-||
MMMMM MMMMMMM MMMMM MMMMMMM
Part 1 (Variation):
D--------------------------------------------------||
A--------------------------------------------------||
First F-13-------13-13---------13-------13-13-13---------||
Guitar C----00000-------0000000----00000----------0000000-||
G-11-00000-11-11-0000000-11-00000-11-11-11-0000000-||
C----00000-------0000000----00000----------0000000-||
MMMMM MMMMMMM MMMMM MMMMMMM
D--------------------------------------------------||
A--------------------------------------------------||
Second F-13-------13-13-14-14-14-13------13-13-14-14-14-13||
Guitar C----00000------------------00000------------------||
G-11-00000-11-11-12-12-12-1100000-11-11-12-12-12-11||
C----00000------------------00000------------------||
MMMMM MMMMM
Repeat part 1.
Part 2:
D----||
A----||
First F----||Repeat
Guitar C-00-||Thirty-three
G-00-||Times
C-00-||
MM
D----||
A----||
Second F----||Repeat
Guitar C-00-||Thirty-three
G-00-||Times
C-00-||
MM
Part 3:
D---------------------------------------------||
A---------------------------------------------||
First F---------------------------------------------||
Guitar C-00-00-00-00-00-00-00-00-00-00-00-00-00-00-00||
G-00-00-00-00-00-00-00-00-00-00-00-00-00-00-00||
C-00-00-00-00-00-00-00-00-00-00-00-00-00-00-00||
MM MM MM MM MM MM MM MM MM MM MM MM MM MM MM
D---------------------------------------------||
A---------------------------------------------||
Second F-17----19-20-19-17-19------------------------||
Guitar C----------------------00-00-00-00-00-00-00-00||
G-15----17-18-17-15-17-00-00-00-00-00-00-00-00||
C----------------------00-00-00-00-00-00-00-00||
MM MM MM MM MM MM MM MM
D---------------------------------------------||
A---------------------------------------------||
First F---------------------------------------------||
Guitar C-00-00-00-00-00-00-00-00-00-00-00-00-00-00-00||
G-00-00-00-00-00-00-00-00-00-00-00-00-00-00-00||
C-00-00-00-00-00-00-00-00-00-00-00-00-00-00-00||
MM MM MM MM MM MM MM MM MM MM MM MM MM MM MM
D---------------------------------------------||
A---------------------------------------------||
Second F-17----19-20-19-22---------------------------||
Guitar C----------------------00-00-00-00-00-00-00-00||
G-15----17-18-17-20----00-00-00-00-00-00-00-00||
C----------------------00-00-00-00-00-00-00-00||
MM MM MM MM MM MM MM MM
Repeat part 3.
Part 4:
D---------------------------------------------||
A---------------------------------------------||
First F---------------------------------------------||
Guitar C-00-00-00-00-00-00-00-00-00-00-00-00-00-00-00||
G-00-00-00-00-00-00-00-00-00-00-00-00-00-00-00||
C-00-00-00-00-00-00-00-00-00-00-00-00-00-00-00||
MM MM MM MM MM MM MM MM MM MM MM MM MM MM MM
D---------------------------------------------||
A---------------------------------------------||
Second F--5----7--8--7--5--7-------------------------||
Guitar C----------------------00-00-00-00-00-00-00-00||
G--3----5--6--5--3--5--00-00-00-00-00-00-00-00||
C----------------------00-00-00-00-00-00-00-00||
MM MM MM MM MM MM MM MM
D---------------------------------------------||
A---------------------------------------------||
First F---------------------------------------------||
Guitar C-00-00-00-00-00-00-00-00-00-00-00-00-00-00-00||
G-00-00-00-00-00-00-00-00-00-00-00-00-00-00-00||
C-00-00-00-00-00-00-00-00-00-00-00-00-00-00-00||
MM MM MM MM MM MM MM MM MM MM MM MM MM MM MM
D---------------------------------------------||
A---------------------------------------------||
Second F--5----7--8--7---10--------------------------||
Guitar C----------------------00-00-00-00-00-00-00-00||
G--3----5--6--5----8---00-00-00-00-00-00-00-00||
C----------------------00-00-00-00-00-00-00-00||
MM MM MM MM MM MM MM MM
Repeat part 4, using variation below.
Part 4 (Variation):
D-------------------------------||
A-----------------^^----------^^||
F--5----7--8--7---10----10----10||
C-------------------------------||
G--3----5--6--5----8-----8-----8||
C-------------------------------||
So on and so forth...
You can get the timing of the bending by listening to the CD...
Play part 1 twice, then part 1's variation, then part 1 again.
At the end of part 1, let the bottom 3 string ring open.
Part 5:
D-----------------------------------------||
A-----------------------------------------||
Second F------------------------------15------15-||
Guitar C-------13------13------------------------||
G----12---12-------12-13-13-13---13-13----||
C-12---------12---------------------------||
D-----------------------------------------||
A-----------------------------------------||
First F-----------------------------------------||
Guitar C-----------------------------------0-3-0-||
G-----------------------------------0-3-0-||
C-----------------------------------0-3-0-||
M M M
Part 5 (Variation):
D-----------------------------------------||
A-----------------------------------------||
Second F------------------------------15------15-||
Guitar C-------13------13------------------------||
G----12---12-------12-13-13-13---13-13----||
C-12---------12---------------------------||
D-----------------------------------------||
A-----------------------------------------||
First F--7-------7-------7-------7--------------||
Guitar C--6-------6-------6-------6--------0-3-0-||
G--5-------5-------5-------5--------0-3-0-||
C-----------------------------------0-3-0-||
M M M
Figure the timing out for yourself, but they also vary the 0-3-0 riff to:
D-----------------------------------------||
A-----------------------------------------||
First F--7-------7-------7-------7--------------||
Guitar C--6-------6-------6-------6------0-3-3-0-||
G--5-------5-------5-------5------0-3-3-0-||
C---------------------------------0-3-3-0-||
M M M M
Part 6:
D---------------------||
A---------------------||
First F-14---15-17----------||
Guitar C---------------------||
G-12---13-15----------||
C---------------------||
D---------------------||
A---------------------||
Second F---------------------||
Guitar C-0000000000----0-3-0-||
G-0000000000----0-3-0-||
C-0000000000----0-3-0-||
MMMMMMMMMM M M M
D---------------------||
A---------------------||
First F-14---17-15----------||
Guitar C---------------------||
G-12---15-13----------||
C---------------------||
D---------------------||
A---------------------||
Second F---------------------||
Guitar C-0000000000----0-3-0-||
G-0000000000----0-3-0-||
C-0000000000----0-3-0-||
MMMMMMMMMM M M M
D---------------------||
A---------------------||
First F-14---17-15-17-------||
Guitar C---------------------||
G-12---15-13-15-------||
C---------------------||
D---------------------||
A---------------------||
Second F---------------------||
Guitar C-0000000000----0-3-0-||
G-0000000000----0-3-0-||
C-0000000000----0-3-0-||
MMMMMMMMMM M M M




Ваше мнение



Капча