Title: Savannah
Artist: Zao
Album: Liberate Te Ex Inferis(Save Yourself From Hell)
Tabbed by: Andrew Jackson
Tuning: Drop C

Intro: Segue from intro
Guitar 1 & 2:
E|--------------
B|--------------
G|--------------
D|--------------
A|-5b--5b--5b-5-
E|-0---0---0--0-

Intro 2: Guitar 1 stays the same. Parenthesis means palm mute
E|-----------------------
B|-----------------------
G|-------7-------7-----7-
D|-(0-0)---(0-0)---(0)---
A|-(0-0)-5-(0-0)-5-(0)-5-
E|-(0-0)---(0-0)---(0)---

Riff 1: Guitars 1 & 2 / = slide
E|-------(10/)------(10/)------(10/)------(10/)-
B|----------------------------------------------
G|---------7/---------7/---------7/---------7/--
D|-1-1-0-0----1-1-0-0----1-1-0-0----1-1-0-0-----
A|-1-1-0-0-5/-1-1-0-0-5/-1-1-0-0-5/-1-1-0-0-5/--
E|-1-1-0-0----1-1-0-0----1-1-0-0----1-1-0-0-----

Riff 2:
Guitar 1:
E|------------------------------------------------
B|------------------------------------------------
G|-8--8--8--8--8--8--8--8--8--8--8--8--8--8--8--8-
D|-X--X--X--X--X--X--X--X--X--X--X--X--X--X--X--X-
A|-6--6--6--6--6--6--6--6--6--6--6--6--6--6--6--6-
E|------------------------------------------------

Guitar 2:
E|---------------
B|---------------
G|------------7~-
D|-(0-0--0-0)-X--
A|-(0-0--0-0)-5~-
E|-(0-0--0-0)----

Riff 3:
Guitar 1 & 2: First 4x
E|---------------
B|---------------
G|------------8/-
D|-7--0--8--0-X--
A|-7--0--8--0-6/-
E|-7--0--8--0----

Guitar 2: Second 4x
E|----------------------------
B|----------------------------
G|----------------------------
D|-7--0--8--(0-0-0-0--0-0-0-0)
A|-7--0--8--(0-0-0-0--0-0-0-0)
E|-7--0--8--(0-0-0-0--0-0-0-0)

Pre-Chorus:
Guitar 1 & 2:
E|-------------------
B|-------------------
G|-------------------
D|-(0-0-0-0--0-0-0-0)
A|-(0-0-0-0--0-0-0-0)
E|-(0-0-0-0--0-0-0-0)

Then:
Guitar 1:
E|--------------------
B|--------------------
G|--8----8----8----8--
D|--X----X----X----X--
A|--6----6----6----6--
E|-(0)--(0)--(0)--(0)-

Guitar 2:
E|------------------
B|------------------
G|------------------
D|-0----0----0----0-
A|-0----0----0----0-
E|-0----0----0----0-

Riff 3:
Guitar 1:
E|---------------------
B|---------------------
G|-10-7-8-7--7-7-7-8-7-
D|---------------------
A|---------------------
E|---------------------

Chorus:
Guitar 1: 2x
E|-(10-10-10-10-10-10-10-10-11-11-11-11-11-11-11-11)
B|--------------------------------------------------
G|--7--7--7--7--7--7--7--7--8--8--8--8--8--8--8--8--
D|--X--X--X--X--X--X--X--X--X--X--X--X--X--X--X--X--
A|--5--5--5--5--5--5--5--5--5--5--5--5--5--5--5--5--
E|--------------------------------------------------

Guitar 2: 4x
E|-----------------------------------------
B|-----------------------------------------
G|-----------------------------------------
D|-(0-0--0-0--0-0--0-0--0-0--0-0--0-0--0-0)
A|-(0-0--0-0--0-0--0-0--0-0--0-0--0-0--0-0)
E|-(0-0--0-0--0-0--0-0--0-0--0-0--0-0--0-0)

Let feedback ring and mess around before the lead bass run.

Transition: Bass
G|----------------------
D|----------------------
A|------------------(5)-
E|-7-6-7-0--7-6-7-0-----

Guitars 1 & 2:
E|---------------------
B|---------------------
G|-------------------7-
D|-7-6-7-0--7-6-7-0--X-
A|-7-6-7-0--7-6-7-0--5-
E|-7-6-7-0--7-6-7-0----

End:
Guitar 1:
E|------------------
B|------------------
G|-7-7-7-7--8-8-8-8-
D|-X-X-X-X--X-X-X-X-
A|-5-5-5-5--5-5-5-5-
E|------------------

Guitar 2:
E|------------------
B|------------------
G|------------------
D|-0-0-0-0--0-0-0-0-
A|-0-0-0-0--0-0-0-0-
E|-0-0-0-0--0-0-0-0-




Ваше мнение



Капча