Song: Repressed
Artist: Zao
Album:Splinter Shards the Birth of Seperation
Transcribed by: BJ Woodward ([email protected])
Song is in dropped B#, 1/2 step lower than C (well thats the way I tabbed it).
Key: pm= palm mute
*=Artificial harmonic
-t- = palm muted triplet
$= repeat
Intro: A
|--------------------------------------------------------------------|
|--------------------------------------------------------------------|
|-----------------------333------------------------------------------|
|-5-5-5--5--5---555-444-----555--5-5-5-5--555-444--------------------|
|-5-5-5--5--5--------------------5-5-5-5----------555-666------------|
|-5-5-5--5--5--------------------5-5-5-5-----------------------------|
pm----------- -------------------|
B
|------------------------------------------------------------------|
|------------------------------------------------------------------|
|--------------------666-555---------------------------------------|
|-5-5-5-5-5-5-5-5-----------666-555------5-5-5-5-5-5-5-5--6-5-6-5--|
|-5-5-5-5-5-5-5-5------------------------5-5-5-5-5-5-5-5--6-5-6-5--|
|-5-5-5-5-5-5-5-5------------------------5-5-5-5-5-5-5-5-----------|
|------------------------------------------------------------------|
|------------------------------------------------------------------|
|--------------------------333-------------------------------------|
|-5-5-5-5-5-5-5-5--555-444-----555-55555555--555-444---------------|
|-5-5-5-5-5-5-5-5------------------55555555----------555-666-------|
|-5-5-5-5-5-5-5-5------------------55555555------------------------|
(^-not enough room)
|------------------------------------------------------------------|
|------------------------------------------------------------------|
|--------------------666-555---------------------------------------|
|-5-5-5-5-5-5-5-5-----------666-555-----------------------566565---|
|-5-5-5-5-5-5-5-5------------------------5-5-5-5-5-5-5-5--566565---|
|-5-5-5-5-5-5-5-5------------------------5-5-5-5-5-5-5-5-----------|
Verse:
(guitar1)
|-----------------------------------------------------------------|
|-----------------------------------------------------------------|
|-----------------------------------------------------------------|
|-0---------------0--1--------------1--0-----------------0-/5-----|
|-0---------------0--1--------------1--0-----------------0-/5-----|
|-0---------------0--1--------------1--0-----------------0-/5-----|
(guitar 2)
|-------------------------| |-----|
|-------------------------| repeat this with the riff above |-----|
|-87----87---87---87------| 3 times. on the last note just let it |--7--|
|----87----87---87---87---| ring-------------------------> |-----|
|-------------------------| |-----|
|-------------------------| |-----|
(guitar1)
|-------------------------------------------------------------------------------------|
|-------------------------------------------------------------------------------------|
|-------------------------------------------------------------------------------------|
|-0------------0--1-------------1-3-1--0------------0-/5-5---5-5----------------------|
|-0------------0--1-------------1-3-1--0------------0-/5-5---5-5----------------------|
|-0------------0--1-------------1-3-1--0------------0-/5-5---5-5----------------------|
pm--- ----|
(guitar 2 lead riff)
|-------------------------------------|
|-------------------------------------|
|-7-7-8-8h10/1210-8-10-8/7-7---------|
|-------------------------------------|
|-------------------------------------|
|-------------------------------------|
Riff2 in verse
|-----------------------------------------------------------------|
|-----------------------------------------------------------------|
|-----------------------------------------------------------------|
|-0----------------0--1----------1--0------------0-/5---6-6-6-6-0-|
|-0----------------0--1----------1--0------------0-/5---6-6-6-6-0-|
|-0----------------0--1----------1--0------------0-/5---6-6-6-6-0-|
Harmonic Riff
|--------%|----------------------------------------------------------|
|--------%|----------------------------------------------------------|
|--------R|$---------------------------------------------------------|
|-5-5-5--E|$-555----5*--555----5*--555--5*---555---8-7-6-------------|
|-5-5-5--S|--555--------555--------555-------555---8-7-6-------------|
|-5-5-5--T|--555--------555--------555-------555---8-7-6-------------|
pm------ -t- -t- -t- -t- pm-----|
Repeat the selected Riff a few times.
PRE-Breakdown Riffa:
|----------------------------------------|
|----------------------------------------|
|----------------------------------------|
|-5-5--5-5h6p5-----5-5-5-5-5-5-5---------|
|-5-5----------8---5-5-5-5-5-5-5---------|
|-5-5--------------5-5-5-5-5-5-5---------|
pm--- pm---------------|
Riffb:
|--------------------------------------------|
|--------------------------------------------|
|--------------------------------------------|
|-5-5--5-5h6p5-----5-5-5-5--5-5-5-5----------|
|-5-5----------8---5-5-5-5--5-5-5-5----------|
|-5-5--------------5-5-5-5--5-5-5-5----------|
pm--- pm-------------------|
Riffc:
|----------------------------------------|-----------|
|----------------------------------------|-----------|
|----------------------------------------|-----------|
|-5-5--5-5h6p5-------5-5-5--5--5--5h6----|-5---------|
|-5-5----------8-----5-5-5-----5---------|-5---------|
|-5-5----------------5-5-5-----5---------|-5---------|
pm--- pm----- ---------------| ^
|
Repeat riff c several times then place this last-----|
BREAKDOWN (hold on to ya nuts)
(guitar 1):
|--------------------------------------------------------|
|--------------------------------------------------------|
|--------------------------------------------------------|
|-555-555--5---555-555--5---555-555--5---555-555--5-5-5--|
|-555-555--5---555-555--5---555-555--5---555-555--5-5-5--|
|-555-555--5---555-555--5---555-555--5---555-555--5-5-5--|
-t- -t- pm -t- -t- pm -t- -t- pm -t- -t- pm---
(guitar 2):
|---------------------------------|
|---------------------------------|
|-12------14-15-14-----10---------|
|---------------------------------|
|-10------12-13-12------8---------|
|---------------------------------|
***At the end of the song it just repeats the first guitar part for the
breakdown(or something similar to it). its the same notes
none the less. then it goes to the beggining type riff.
And then theres some extra lil stuff goin on at the end like that funky
wah into harmonic type riff. dont worry about it you'll be too stunned
from the breakdown to play it correctly even if i did tab it out. Here's
one of the last riffs.
|------------------------------------|
|------------------------------------|
|------------------------------------|
|------------------------------------|
|--8-7-5--8-7-5--8-7-5--8-7-5--------|
|--8-7-5--8-7-5--8-7-5--8-7-5--------|
pm-------------------------------------|




Ваше мнение



Капча