Song: Lies of Serpents, a River of Tears
Artist: Zao
Album: Where Blood and Fire Bring Rest
Transcribed by: BJ Woodward ([email protected])
(Also there are 2 guitars in this song.)
Drop C Tuning(CGCFAD)
E|-----------------------------------| |--------------------------------------|
B|-----------------------------------| |--------------------------------------|
G|-----------------------------------| |--------------------------------------|
Guitar 1 D|-----------7--6--7--6--7-----------| Guitar 2 |------------------------------|
A|-----------------------------------| |--0*--0----------0*-0-----------------|
D|-----------------------------------| |--0*--0----------0*-0-----------------|
(You could play the part above on one guitar, but is sounds like two in the cd.)
E|----------------------------------|
B|----------------------------------|
G|---------------7--------7---------|
Guitar 1 D|------------------------------|
A|---------------5--------5---------|
D|--0*-0*-0*-0*-----0*-0*-----------|
E|----10--11--8--10------------------| |--------------------------------------|
B|-----------------------------------| |--------------------------------------|
G|-----------------------------------| |--------------------------------------|
Guitar 1 D|-----------------------------------| Guitar 2 |------------------------------|
A|-----------------------------------| |--0*--0*----------0*-0*---------------|
D|-----------------------------------| |--0*--0*----------0*-0*---------------|
E|-------------------------------------------|
B|-------------------------------------------|
G|-----------7-------------7-----------------|
Guitar 1 D|---------------------------------------|
A|-----------5-------------5-----------------|
D|--0-0-1b-0-----0-0-1b-0--------------------|
E|------------------------------|---------------------------------|
B|------------------------------|---------------------------------|
G|------------------------------|---------------7------7-7--------|
Guitar 1 D|--------------------------7/0-|-----------------------------|
A|------------------------------|---------------5------5-5--------|
D|--0*--0*----------0*-0*-------|--0*-0*-0*-0*-----0*-------------|
E|-----------3--------------3--------| |---------------------------------------|
B|--3-2-3-2-----3-2-3-2-3-2----------| |---------------------------------------|
G|-----------------------------------| |---------------------------------------|
Guitar 1 D|-----------------------------------| Guitar 2 |-------------------------------|
A|-----------------------------------| |--0*-0*-0*-0*-0*-0*-0*-0*-0*-----------|
D|-----------------------------------| |--0*-0*-0*-0*-0*-0*-0*-0*-0*-----------|
Back to this.
E|-------------------------------------------|
B|-------------------------------------------|
G|-----------7-------------7-----------------|
Guitar 1 D|---------------------------------------|
A|-----------5-------------5-----------------|
D|--0-0-1b-0-----0-0-1b-0--------------------|
That's it. Be sure to send me any corrections you find.
Key:
h= hammer
p= pulloff
/= slide
^= bend
*= palm mute string(s)




Ваше мнение



Капча