Artist: Zao
Song:Growing in Grace (acoustic interlude)
Tuning: half step down (sounds the same in standard too)
Tabbed by: Josh T.
email: [email protected]
this is a really sweet song you dont even have to know the song to play it just do continous eighth note picking if you're getting this and you don't know zao check them out they're awesome (for fans of metal)
e-----------------------------------------------------------
B---------0----------------0----------------0-----------0---
G-----5-----7----------5-----5----------5-----5-------5---5-
D---7---7-----5------7---7-----7------7---7-----7---5-------
A-0--------------0-0-------------(0)8-------------8---------
E-----------------------------------------------------------

e--0-------------------------------------------------------
B----3-------------0---------------0-----------------0-----
G------5p4-----5-----5---------5-----5-----------5-----5---
D------------7---7-----7-----7---7-----7-------7---7-----7-
A----------0-------------0-0-------------(0)-8-------------
E----------------------------------------------------------

e-----------------------------------------------------------
B------------0----------------------------------------------
G--------0-----0--------------------------------------------
D------4---4-----4------------------------------------------
A--8-7-------------7----------------------------------------
E-----------------------------------------------------------

then repeat that some more times and thats it. its not the whole song, its just a sweet interlude at the end, so go check out zao if you like metal.




Ваше мнение



Капча