Song: Five Year Winter
Artist: Zao
Album: Self-titled
Tabbed by: Daniel Barnett [email protected]
Dear Tiffany..... play this riff 2X
D----------------|----------------------------------------------------------|
A----------------|----------------------------------------------------------|
F----------------|----------------------------------------------------------|
C----------------|---2-1-0-1-2-0----2-1-0-1-2-0---2-1-0-1-2-0----2-1-0-1-2-0|
G----------------|---2-1-0-1-2-0----2-1-0-1-2-0---2-1-0-1-2-0----2-1-0-1-2-0|
C---2-1-0----3~~-|---2-1-0-1-2-0----2-1-0-1-2-0---2-1-0-1-2-0----2-1-0-1-2-0|
A spike.....
D-----------------------------------------|
A-----------------------------------------|play this riff
F-----------------------------------------|however many times
C----0-0-0-0---0-0-0-0---0-0-0-0---0-0-0-0|until the next verse.
G----0-0-0-0---0-0-0-0---0-0-0-0---0-0-0-0|If you're a true Zao fan
C----0-0-0-0---0-0-0-0---0-0-0-0---0-0-0-0|you'll know when it is
* * * * * * * * * * * * * * * *
Repeat the verse and above riff until the solo. I don't know the solo because I am not
that talented. I see his fingers moving, but I can't make out the notes. too fast....
this riff is awesome....
D--------------------------------------------------------------------
A---------------------------------------------------------------------
F---------------------------------------9-/-10/-12---7-/-8-/-10- -----
C---------------------------------------x-/-x-/-x----x-/-x-/-x-- ----
G---------------------------------------7-/-8-/-10---5-/-6-/-8-- ---
C--0-0-0-0-0-0-0-0-0-0-0-0-0-0-0-0-0-0-------------------------- --
* * * * * * * * * * * * * * * * * *
D-------------------------------------------------------------------- ---
A-------------------------------------------------------------------- --
F------------------------------------------------------------------------ / play 6x,
C------------------------------------------------------------------------ / then you burn
G------------------------------------5h8p5h8p5h8p5h8--4------------------ h7p4h7p4h7p4h7 / it down.
C--0-0-0-0-0-0-0-0-0-0-0-0-0-0-0-0---------------------------------------
* * * * * * * * * * * * * * * *
Burn it down and walk away......
D-----------------------------------------------------------------|
A------------------------------------12-12-12-12-------12-12-12-12|
F------------------------------------15-15-15-15-------15-15-15-15|
C--0-0---0-0---0-0---0-0-------0-0----------------0-0-------------|fade away
G--0-0---0-0---0-0---0-0-------0-0----------------0-0-------------|
C--0-0---0-0---0-0---0-0-------0-0----------------0-0-------------|
* * * * * * * * * * * *
Have fun with this one. And good luck to Zao as they move on with their lives.




Ваше мнение



Капча