Author/Artist: Zao
Title: Fifteen Rhema
Album: Where Blood And Fire Bring Rest
DROP D TUNED
It starts off with sliding up the drop D tuned string and then goes to:
Riff A:
D-0---------------0--1--3--1--0-----------0--0---0--1--3--1--0-|
A---6-5-3h5-3-0-1-0--1--3--1--0-6-5-3h5-3-0--0---0--1--3--1--0-|
D-----------------0--1--3--1--0-----------0--0---0--1--3--1--0-|
G--------------------------------------------------------------|
B--------------------------------------------------------------|
E--------------------------------------------------------------|
*repeat that 4 x's and then play this chord 2 x's
D--0--|
A--0--|
D--0--|
G--2--|
B--3--|
E--2--|
*then it does this 2 x's
Riff B:
D------------------------3---|
A--5--3--5---8--5--3--5--3---|
D--7--5--7--10--7--5--7--3---|
G--7--5--7--10--7--5--7------|
B----------------------------|
E----------------------------|
*then it goes into this 4 x's:
D--0--0--0--0--0--0--0--0--2---|
A--0--0--0--0--0--0--0--0--2---|
D--0--0--0--0--0--0--0--0--2---|
G------------------------------|
B------------------------------|
E------------------------------|
*then it switches to this and does it 4 x's:
D--0--0--0--0--0--0--0--0------------|
A--0--0--0--0--0--0--0--0------------|
D--0--0--0--0--0--0--0--0------------|
G-----------------------------13bend-|
B-----------------------------11-----|
E------------------------------------|
*then it ends like so:
D--0--0--0--0-| |--0--0--|
A--0--0--0--0 |b|--0--0--|
D--0--0--0--0-|r|--0--0--|
G-------------|e|--------|
B-------------|a|--------|
E-------------|k|--------|
Next part:
D--0--0------------0--0-------------------0--3--2--0--3--2--0--0--0--0-----|
A--0--0------------0--0------------1--0------------------------0--0--0--0--|
D--0--0------------0--0----------------------------------------0--0--0--0--|
G---------16bend---------16bend--------------------------------------------|
B---------14-------------14------------------------------------------------|
E--------------------------------------------------------------------------|
D---------0--3--2--0--3--2--0-----------| D---------|
A--1--0---------------------------4--4--| A--4--4---|
D---------------------------------6--6--| D--6--6---|
G---------------------------------6--6--| G--6--6---|
B---------------------------------------| B---------|
E---------------------------------------| E---------|
Riff C: 2 x's
D-0--0--0---0--0--0--0--------------3--0--0--0---0--0-----------------------|
A-------6--5------3------1--0--1--0-----------6---5------3--5--6--5--6--8---|
D---------------------------------------------------------------------------|
G---------------------------------------------------------------------------|
B---------------------------------------------------------------------------|
E---------------------------------------------------------------------------|
*it ends like this: 4 x's
D--0--3--2--5-|
A--0--3--2--5-|
D--0--3--2--5-|
G-------------|
B-------------|
E-------------|
*then it all ends in this chord 5 x's:
D--0-|
A--0-|
D--0-|
G----|
B----|
E----|




Ваше мнение



Капча