song: The dreams that don't come true
artist: ZAO
album: Self-titled
tabbed by: [email protected]
Dropped C tuning
D-------------------------------------------------|
A---------------------------------1----------1----|
F--------2------------2---------------2----------2|
C------------3------------3-----------------------|riff a, clean
G-----------------3-3---3-----0-0---0----0-0---0--|
C----0-0---0--------------------------------------|
I tried again........
D------------------------------------------|
A------------------------------------------|
F--------2------------2-----------10-109-9|
C------------3------------3--------x--x-x-x|riff b, clean (play ab 4 times) then the distortion comes
in
G-----------------3-3---3-----0-0--8--87-7|
C----0-0---0-----------------------0--0---0|
D------------------------| |------------------|
A------------------------| |------------------|
F--------10-10/12--12----| |-----10-109--9---|
C---0-0---x--x--x---x---8|2x |0--0--x--x-x--x--8|once
G---0-0---8--8/10--10---5| |0--0--8--87--7--5|
C---0-0-----------------5| |0--0-------------5|
Your picture........
D------------------------------------|
A------------------------------------|
F------------10--------------10------|
C---0-0-0-0---x---0-0-0-0-0---x--0--8|4x
G---0-0-0-0---8---0-0-0-0-0---8--0--5|
C---0-0-0-0-------0-0-0-0-0------0--5|
p.m.* * * * * * * * * *
Dream of you, dream of you.......
D---------------------------------------------------------------------------|
A---------------------------------------------------------------------------|
F---------------------10------------10------------10------------10----------|
C---3--2--3---0-0-0-0--x--0-0-0-0-0--x--0-0-0-0-0--x--0-0-0-0-0--x--0-----0~|
G---3--2--3---0-0-0-0--8--0-0-0-0-0--8--0-0-0-0-0--8--0-0-0-0-0--8--0-----0~|
C---3--2--3---0-0-0-0-----0-0-0-0-0-----0-0-0-0-0-----0-0-0-0-0-----0-----0~|
p.m. * * * * * * * * * * * * * * * * * * * * let ring
I will dream......
D-----------------|
A-----------------|
F--10--9-10--9----|
C---x--x--x--0---0|strum each a few times
G---8--7--8--7---0|
C---0--0--0--0---0|
Ending
This is a great song. Have fun with it. Peace.
p.m. - palm mute
/, - slide




Ваше мнение



Капча