Artist: ZAO
Title: Dark Cold Sound
Album: Liberate Te Ex Infreis
Dropped C Tuning
Riff 1 Guitar 2 X4 Guitar 1 X2
e|------------------------------------------------------------------------------|
B|------------------------------------------------------------------------------|
G|------------------------------------------------------------------------------|
D|---9--9--9--9----8--8--8------------7--7----13--------------------------------|
A|------------------------------8--8--------------------------------------------|
E|------------------------------------------------------------------------------|
Riff 1 Guitar 1 X2
e|------------------------------------------------------------------------------|
B|------------------------------------------------------------------------------|
G|------------------------------------------------------------------------------|
D|------------------------------------------------------------------------------|
A|---14--14--14--14--14----12----14----15----17----15----17---13----------------|
E|------------------------------------------------------------------------------|
Riff 2 Guitar 2 X1 Then Guitar 1 w/ Guitar 2 X1
e|------------------------------------------------------------------------------|
B|------------------------------------------------------------------------------|
G|------------------------------------------------------------------------------|
D|------------------------------------------------------------------------------|
A|---4---3----4-3----4----3----4-3----4----3------------------------------------|
E|------------------------------------------------------------------------------|
Riff 3 Both guitars 4X
e|-------------------------------------------------------------------------------|
B|-------------------------------------------------------------------------------|
G|-------------------------------------------------------------------------------|
D|--------3--3-------2----5--5----3--3--1--1-------------------------------------|
A|-3--3--------------------------------------------------------------------------|
E|-------------------------------------------------------------------------------|
Riff 4 Both guitars 5X
e|----------------------------------------------------------------------------|
B|----------------------------------------------------------------------------|
G|-------------------------3--2--0--------------------------------------------|
D|------------1--0------------------------------------------------------------|
A|--------------------3----------------3--3--3--------------------------------|
E|----------------------------------------------------------------------------|
Riff 5 Both Guitars 20X
e|----------------------------------------------------------------------------|
B|----------------------------------------------------------------------------|
G|-6---5---3------------------------------------------------------------------|
D|----------------------------------------------------------------------------|
A|----------------------------------------------------------------------------|
E|----------------------------------------------------------------------------|
Riff 6 Guitar 1 4X then Both Guitars 4X
e|------------------------------------------------------------------------------|
B|------------------------------------------------------------------------------|
G|-1---0------------------------------------------------------------------------|
D|---------3------6---5---3-----------------------------------------------------|
A|------------------------------------------------------------------------------|
E|------------------------------------------------------------------------------|
Guitar 1 Guitar 2
Riff 1 Riff 1
Riff 2 Riff 2
Riff 3 Riff 3
Riff 4 Riff 4
Riff 5 Riff 5
Riff 3 Riff 2
Riff 2 Riff 2
Riff 5 Riff 2
Riff 5 Riff 5
Riff 1 Part 2 after 1X to end Riff 1




Ваше мнение



Капча