Title: Autopsy
Artist: Zao
Tabbed by: Andrew Jackson
Tuning: Standard

Intro:
E|-------------------------------------------------------------------------------------------
B|-------------------------------------------------------------------------------------------
G|-9-9-9--10-10-10--9-9-9--10-10-10----------------------------9-9-9-10-10-10--9-9-9-10-10-10
D|----------------------------------7-7-7--7-7-7--3-3-3--3-3-3-------------------------------
A|-7-7-7---7--7--7--7-7-7---7--7--7-7-7-7--5-7-7--3-3-3--3-3-3-7-7-7--7--7--7--7-7-7--7--7--7
E|----------------------------------5-5-5--5-5-5--1-1-1--1-1-1-------------------------------

1st Verse:
E|------------------------------
B|------------------------------
G|-9-9-10--9--5---9-9-10--12-12-
D|-X-X--X--X--X---X-X--X---X--X-
A|-7-7--8--7--3---7-7--8--10-10-
E|------------------------------

And what shall I do... Guitar 2 (in background)
E|------------------------------------------------------
B|------------------------------------------------------
G|-9-9-9-9-9-9--5-5-5-5-5-5--9-9-9-9-9-9--5-5-5-5/17-17-
D|-X-X-X-X-X-X--X-X-X-X-X-X--X-X-X-X-X-X--X-X-X-X--X--X-
A|-7-7-7-7-7-7--3-3-3-3-3-3--7-7-7-7-7-7--3-3-3-3/15-15-
E|------------------------------------------------------

Fill:
E|---------------
B|---------------
G|-h17--h19--h21-
D|---X----X----X-
A|-h15--h17--h19-
E|---------------

Chorus:
E|------------------------------
B|------------------------------
G|------------------------------
D|-1-1--h5-5-5-5--1-1--h6-6-6-6-
A|-1-1--h5-5-5-5--1-1--h6-6-6-6-
E|-1-1--h5-5-5-5--1-1--h6-6-6-6-

Guitar 2:
E|------------------------------------
B|------------------------------------
G|--------9-9-9-9----10-10-10-10------
D|-1-1----X-X-X--1-1--X--X--X--X------
A|-1-1--7-7-7-7--1-1--8--8--8--8------
E|-1-1-----------1-1------------------

Verse:
E|-------------------------------------------
B|-------------------------------------------
G|-12-12-12-12-12-12-10-9-7-7-7-7-9-9-9-9-10-
D|--X--X--X--X--X--X--X-X-X-X-X-X-X-X-X-X--X-
A|-10-10-10-10-10-10--8-7-5-5-5-5-7-7-7-7--8-
E|-------------------------------------------

Ending:
E|---------
B|---------
G|-5-------
D|-3----h6-
A|-3----h6-
E|---------




Ваше мнение



Капча