Title: Alive Is Dead
Artist: Zao
Tabbed by: Andrew Jackson
Tuning: Drop C

Guitar 1:
d|---------------------
A|---------------------
F|---------------------
C|-0----1----8----1--3-
G|-0----1----8----1--3-
C|-0----1----8----1--3-

Guitar 2:
d|-----------------------
A|-----------------------
F|-12----7----10----3--5-
C|--X----X-----X----X--X-
G|-10----5-----8----1--3-
C|-----------------------

Piano Outro:
d|--------------------------------------------------------------------
A|--------------------------------------------------------------------
F|-(3-5)-12--7--10--3-5--12--7--10--3-5--0-------------0--------------
C|------------------------------------------0--3----------0--3--------
G|------------------------------------------------1-3-----------1-3---
C|------------------------------------------------------------------5-




Ваше мнение



Капча