Title: 5 Year Winter
Artist: Zao
Tabbed by: Andrew Jackson
Tuning: Drop C

Intro: 4x Clean, but fuzzy
d|----------
A|----------
F|----------
C|-3-1-0----
G|-3-1-0-1b-
C|-3-1-0-0--

Verse: (“Dear Tiffany, you’ve made me…”)
d|--------------
A|--------------
F|--------------
C|-3-1-0----0-0-
G|-3-1-0----0-0-
C|-3-1-0-3b-0-0-

Bridge: Repeat (“…spike…”)
d|-------------------
A|-------------------
F|-------------------
C|-(0-0-0-0--0-0-0-0-)
G|-(0-0-0-0--0-0-0-0-)
C|-(0-0-0-0--0-0-0-0-)

Pre-Verse:
d|------------------
A|------------------
F|------------------
C|-(0)--------------
G|-(0)-------1b-----
C|-(0)-3b-1b-0--3b--

Breakdown: Guitar 1:
d|------------------------------------------------------------------
A|------------------------------------------------------------------
F|--------------------------9-10-13--9-10-12------------------------
C|-(0-0-0-0-0-0-0-0-0-0-0)------------------(0-0-0-0-0-0-0-0-0-0-0)-
G|-(0-0-0-0-0-0-0-0-0-0-0)-7--8-11--7--8-10-(0-0-0-0-0-0-0-0-0-0-0)-
C|-(0-0-0-0-0-0-0-0-0-0-0)------------------(0-0-0-0-0-0-0-0-0-0-0)-

d|---------------------------------
A|---------------------------------
F|---------------------------------
C|---------------------------------
G|-5h8-5h8-5h8-5h8-4h7-4h7-4h7-4h7-
C|---------------------------------

End: (“Burn it down and walk away…”)
d|--------|--|--------------------
A|--------|--|--------------------
F|--------|--|--------17-17-17-17-
C|-(0-0)--|4x|-(0-0)--------------
G|-(0-0)--|--|-(0-0)-16-16-16-16--
C|-(0-0)--|--|-(0-0)--------------




Ваше мнение



Капча