***************************************************************************
This Note's For You (performed acoustic)
by Neil Young
***************************************************************************
Transcribed by Soenen Martijn ([email protected]) 19:51 07/05/2001
NOTES: This tab is based on the acoustic version I have from
acoustic afternoon. This is a way you can play it on an acoustic
guitar. I'guess Neil plays the two chords during the
verses in barr?, if you want to you can play them normal.
Therefore I gave you the chords shapes.
CHORDS used in this song:
EADGBE EADGBE
Am7 x02010 or in barr? x05555
Bm7 x24232 or in barr? x07777
Em7 022030 or in barr? x76780
INTRO & RIFF:
A Am7 Bm7
_______
/ > You can drop this part
e|-----5-5-5--x---------|--------5-5-/-7-7--x--7-7-7-x------|
B|-----5-5-5--x---------|--------5-5-/-7-7--x--7-7-7-x------|
G|-----5-5-5--x---------|--------5-5-/-7-7--x--7-7-7-x------|
D|-----5-5-5--x---------|--------5-5-/-7-7--x--7-7-7-x------|
A|--0--0-0-0--x---------|--------0-0---0-0--x--0-0-0-x------|
E|----------------------|-----------------------------------|
Ain't singin' for Pepsi
Ain't singin' for Coke
I don't sing for nobody
e|-----5-5-7--x---------|
B|-----5-5-7--x---------|
G|-----5-5-7--x---------|
D|-----5-5-7--x---------|
A|--0--0-0-0--x---------|
E|----------------------|
Makes me feel like a joke
REST
e|----------------------|-----------------------------------|---------------------------|
B|----------------------|-----------------------------------|---------------------------|
G|----------------------|--8b--8b--8b--8b--8b--8b--8b--8b---|--8b--8b--8b--8b--8b--8b---|
D|----------------------|-----------------------------------|---------------------------|
A|----------------------|-----------------------------------|---------------------------|
E|----------------------|-----------------------------------|---------------------------|
This note's for you.
A Am7 Bm7
_______
/ > You can drop this part
e|-----5-5-5--x---------|--------5-5-/-7-7--x--7-7-7-x------|
B|-----5-5-5--x---------|--------5-5-/-7-7--x--7-7-7-x------|
G|-----5-5-5--x---------|--------5-5-/-7-7--x--7-7-7-x------|
D|-----5-5-5--x---------|--------5-5-/-7-7--x--7-7-7-x------|
A|--0--0-0-0--x---------|--------0-0---0-0--x--0-0-0-x------|
E|----------------------|-----------------------------------|
Ain't singin' for Miller
Won't sing for Bud
I never sing for politicians
Ain't singin' for Spuds
REST
This note's for you.
This note's for you.
I've got the real thing
I got the real thing, baby
It's so refreshing
REST
This note's for you
Em7
e|-(0)-0-0-0-0-0-0--------|
B|-(8)-8-8-8-8-8-8--------|
G|-(7)-7-7-7-7-7-7--------|
D|-(6)-6-6-6-6-6-6--------|
A|-(7)-7-7-7-7-7-7--------|
E|--0---------------------|
Don't need no cash
Ain't want no money
Don't won't no stash
REST
This note's for you.
A Am7 Bm7
_______
/ > You can drop this part
e|-----5-5-5--x---------|--------5-5-/-7-7--x--7-7-7-x------|
B|-----5-5-5--x---------|--------5-5-/-7-7--x--7-7-7-x------|
G|-----5-5-5--x---------|--------5-5-/-7-7--x--7-7-7-x------|
D|-----5-5-5--x---------|--------5-5-/-7-7--x--7-7-7-x------|
A|--0--0-0-0--x---------|--------0-0---0-0--x--0-0-0-x------|
E|----------------------|-----------------------------------|
OUTRO: with Am7
See You Later.
|===========================================================|
If you want to end like the electric version,
I tabbed out the last line for you:
E|------------------------------------------|
B|------------------------------------------|
G|--7/8--5----7/8--5----5/7--0------0---0/2-|
D|------------------------------------------|
A|------------------------------------------|
E|------------------------------------------|
This note This note This note's for you
***************************************************************************
More Tabs At: http://members.fortunecity.com/dmedm/gitaar/guitar.htm
***************************************************************************




Ваше мнение



Капча