tabbed by djfritz
the intro/verse:
GUITAR 1 (THIS IS ALSO THE RIFF FOR THE VERSES)
E|-------------------------------------|
B|-------------------------------------|
G|-PALM MUTE----DIS RINGS OUT HERE-----| this is played 2 times alone
D|-99999999------7-----5---------------| just this guitar, the the 2nd guitar, bass
A|-77777777------5-----3---------------| and drums come in on the third time.
E|-XXXXXXXX----------------------------|
GUITAR 2
E|------------------------------------|
B|------------------------------------|
G|------------------------------------|
D|-22222222---------------------------|
A|-22222222------7----5---------------|
E|-00000000------5----3---------------|
THE CHOURS
GUITAR 1
E|-----------------------------------------|
B|-----------------------------------------|
G|-----------------------------------------|
D|--5----7---5------55--5------------------|
A|--5----5---3------33--3------------------|
E|--3----------------------0---------------|
^PM^
GUITAR 2
E|------------------------------------|
B|------------------------------------|
G|------------------------------------|
D|---5---7---5------------------------|
A|---5---5---3----3-2-0---------------|
E|---3------------------3-0-0---------|
After playing the chours through 4 times..
both guitars play an A5 and hold it for 1 measure then return to verse riff
SOLO
u are on your own.
i will tell u the cords are the same as the intro E, D, C




Ваше мнение



Капча