Powder Finger
By: Neil Young
This is how I play it.
You might have to listen to the song to get the rythm.
|---0-----0------0------0-----0--------0------0-----0-------4----0----|
|---0-----2------0------0-----2--------0------0-----2-------4----2----|
|---1-----2------1----2-1-----2--------1----2-1-----2-------4----2----|
|---2-----2------2---2--2-----2--------2---2--2-----2-------6----2----|
|---2-----0------2--2---2-----0--------2--2---2-----0-------6----0----|
|-0-0-----0----0-0------0-----0--------0------0-----0-------4----0----|
|-4----0----4----0----4----0----2-------0-----0------0------0----|
|-4----2----4----2----4----2----4-------0-----2------0------0----|
|-4----2----4----2----4----2----4-------1-----2------1----2-1----|
|-6----2----6----2----6----2----4-------2-----2------2---2--2----|
|-6----0----6----0----6----0----2-------2-----0------2--2---2----|
|-4----0----4----0----4----0----2-------0-----0----0-0------0----|
Just repeat this through each verse.




Ваше мнение



Капча