Artist: Neil Young
Album: Harvest
Song: Out on the weekend
--------------------------------------------------------------------------------
This song is dedicated to my Mom!
I forgot, if you have some corrections or questions, send them to [email protected]!
--------------------------------------------------------------------------------
Out on the weekend
Intro:
Bm E
H H
1:-------0-2--------2--------------0---------0-0-------------
2:------------3-----3------------------------0-0-------------
3:------------------4--4-------0-1-------1---1-1-------------
4:---------------4--4------------------2-2---2-2-------------
5:-2-2--------------2----------------------------------------
6:-----------------------------------------------------------
Bm E
H P
1:-0-2----2-0------0-------0----------------------------------
2:-3----------3------------0----------------------------------
3:-4-------------------0-1-1--x--0-1--------------------------
4:-4-------------4---------2----------------------------------
5:-2----------------------------------------------------------
6:------------------------------------------------------------
Bm E(2x)
C#m F# Bm E
Verse1:
A Bm
Think I'll pack it in and buy a pick-up
E A
Take it down to L.A.
A Bm
Find a place to call my own and try to fix up.
E A
Start a brand new day.
Pre-Chorus1:
A Bm
The woman I'm thinkin' of-she loved me all up
E A
But I'm so down today.
A Bm
She's so fine she's in my mind. I hear her
callin'.
E E E4 E4 A
Chorus1:
A Bm
See the lonely boy, out on the weekend
E A
Trying to make it pay.
A Bm
Can't relate to joy, he tries to speak and
E A
Can't begin to say
Interlude:
Bm E(2x)
C#m F# Bm E
Verse2:
A Bm
She got pictures on the wall-They make me look up
E A
From her big brass bed.
A Bm
Now I'm running down the road trying to stay up
E A
Somewhere in her head.
Pre-Chorus2:
A Bm
The woman I'm thinkin' of-she loved me all up
E A
But I'm so down today.
A Bm
She's so fine she's in my mind. I hear her
callin'.
E E E4 E4 A
Chorus2:
A Bm
See the lonely boy, out on the weekend
E A
Trying to make it pay.
A Bm
Can't relate to joy, he tries to speak and
E A
Can't begin to say
Outro:
Bm E(2x)
C#m F# Bm E
A Bm (E A)
2nd Guitar:
Pre-Chorus1:
A Bm E A A Bm
1:--17------17/19--------------17-------------------------17/19---------
2:--12/14---12-------19/17----------------14/12---10------14------------
3:-------------------16--------16/18------------------------------------
4:----------------------------------------------------------------------
5:----------------------------------------------------------------------
6:----------------------------------------------------------------------
E E4 A
1:--------------17------------------------------------------------------
2:-17-17-17-17----------------------------------------------------------
3:--------------16/18---------------------------------------------------
4:----------------------------------------------------------------------
5:----------------------------------------------------------------------
6:----------------------------------------------------------------------
Chorus1:
A Bm E A
1:----------------------------------------------------------------------
2:-10-----10----------10-10---------------------------------------------
3:----------------------------------------------------------------------
4:----------------------------------------------------------------------
5:----------------------------------------------------------------------
6:----------------------------------------------------------------------
A Bm E A
1:----------------------------------------------------------------------
2:-10-10-10-10-----------10-10-10-10------------------------------------
3:----------------------------------------------------------------------
4:----------------------------------------------------------------------
5:----------------------------------------------------------------------
6:----------------------------------------------------------------------
Interlude:
Bm E Bm E C#m F#
1:-----------17/19\17---17/19-------\17--16------19/21----18------------
2:---14/15--------------------------------------------------------------
3:----------------------------------------------------------------------
4:----------------------------------------------------------------------
5:----------------------------------------------------------------------
6:----------------------------------------------------------------------
Bm E
1:----/19-----17----------19-22-21--------------------------------------
2:------------16/18-----------------------------------------------------
3:----------------------------------------------------------------------
4:----------------------------------------------------------------------
5:----------------------------------------------------------------------
6:----------------------------------------------------------------------
Pre-Chorus2:
A Bm E A
1:--17----------17/19---------------16/17-----------------------19/21---
2:--12/14----------------19/17-------------10/12---16/17/16/17----------
3:--------------16------------------------------------------------------
4:----------------------------------------------------------------------
5:----------------------------------------------------------------------
6:----------------------------------------------------------------------
Bm
1:-17--17/19------------------------------------------------------------
2: ---------------------------------------------------------------------
3:----------------------------------------------------------------------
4:----------------------------------------------------------------------
5:----------------------------------------------------------------------
6:----------------------------------------------------------------------
E E4 A
1:--------------17------------------------------------------------------
2:-17-17-17-17----------------------------------------------------------
3:--------------16/18---------------------------------------------------
4:----------------------------------------------------------------------
5:----------------------------------------------------------------------
6:----------------------------------------------------------------------
Chorus2:
A Bm E A
1:----------------------------------------------------------------------
2:-10-----10----------10-10---------------------------------------------
3:----------------------------------------------------------------------
4:----------------------------------------------------------------------
5:----------------------------------------------------------------------
6:----------------------------------------------------------------------
A Bm E A
1:----------------------------------------------9/17--------------------
2:-10-10-10-10-----------10-10-10-10------------------------------------
3:----------------------------------------------------------------------
4:----------------------------------------------------------------------
5:----------------------------------------------------------------------
6:----------------------------------------------------------------------
Outro:
Bm E Bm E C#m F# Bm E
1:-----------17/16---17/19-------\17--16---19/21---18-------19-22-21----
2:---14/15-----------------------------------------14-------------------
3:----------------------------------------------------------------------
4:----------------------------------------------------------------------
5:----------------------------------------------------------------------
6:----------------------------------------------------------------------
A Bm E A




Ваше мнение



Капча