Links that proof he exists:
http://www.neilyoung.com/
http://www.lyricsfreak.com/n/neil-young/lyrics.htm
-----------------------------------------------------------

[NEIL YOUNG - LIKE A HURRICANE]
TAB VERSION
TABBED BY HEIKI
(improvements or suggestions?, just send a message to me)

Hereґs an old Neil Young song that I like. I know that a chord verision is out on
OLGA, but I belive this version sounds much better. The easiest way to make this
sounds right is to listen to the song while playin the following:

INTRO/VERSE:
note:(*12 in the verses)
E-12--10-8-7-5-7--8-12--10-8-7-8-10--12-*-10-8----------12-10---|
B---------------------------------------------10-12-13-------8~-|
G---------------------------------------------------------------|
D---------------------------------------------------------------|
A---------------------------------------------------------------|
E---------------------------------------------------------------|

REFRAIN:

E-12-10--13-13-13-------------13-13--13-------------------------|
B-----------------15-15--17-15---------15-15----13---13--13-1313|
G--------------------------------------------14----14-----------|
D---------------------------------------------------------------|
A---------------------------------------------------------------|
E---------------------------------------------------------------|

E----------12------8----8-8-8----8-8--8-10-12~------------------|
B----13-13------10---10-------10--------------------------------|
G-14------------------------------------------------------------|
D---------------------------------------------------------------|
A---------------------------------------------------------------|
E---------------------------------------------------------------|

LYRICS:

(Verse1)
Once I thought I saw you in a crowded hazy bar,
Dancing on the light from star to star.
Far across the moonbeam I know that's who you are,
I saw your brown eyes turning once to fire.

(REF.)
You are like a hurricane
There's calm in your eye.
And I'm gettin' blown away
To somewhere safer where the feeling stays.
I want to love you but I'm getting blown away.
(Verse2)
I am just a dreamer, but you are just a dream,
You could have been anyone to me.
Before that moment you touched my lips
That perfect feeling when time just slips
Away between us on our foggy trip.

(REF.)
(Verse 3)
You are just a dreamer, and I am just a dream.
You could have been anyone to me.
Before that moment you touched my lips
That perfect feeling when time just slips
Away between us on our foggy trip.
(REF.)




Ваше мнение



Капча