***************************************************************************
Homegrown (performed acoustic)
by Neil Young
***************************************************************************
Transcribed by Soenen Martijn ([email protected]) 18:45 16/05/2001
NOTES: This is an acoustic version of Homegrown. I miss some fills. If
you know them, please mail me.
CHORDS used in this song:
EADGBE
G 550033
F 330011
D 000323
INTRO: 2 x
F G N/C N/C G N/C G F G N/C N/C G F D
D|-1/3---3---3---0---0---3---0---3--x----|----1/3--(3)--3---0---0---3---1---2--x-|
B|-1/3---3---3---0---0---3---0---3--x----|----1/3--(3)--3---0---0---3---1---3--x-|
G|-0-0---0---0---0---0---0---0---0--x----|----0-0--(0)--0---0---0---0---0---2--x-|
D|-0-0---0---0---0---0---0---0---0--x----|----0-0--(0)--0---0---0---0---0---0--x-|
A|-3-5---5---5---x---x---5---x---5--x----|----3-5--(5)--5---x---x---5---3---0--x-|
D|-3-5---5---5---x---x---5---x---5--x----|----3-5--(5)--5---x---x---5---3---0--x-|
F G N/C N/C G N/C G F G ~
D|-1/3---3---3---0---0---3---0---3--x----|-1/3---3---0---0---0---0---0---0--x-|
B|-1/3---3---3---0---0---3---0---3--x----|-1/3---3---1---0---1---0---0---1--x-|
G|-0-0---0---0---0---0---0---0---0--x----|-0-0---0---2---0---2---0---0---2--x-|
D|-0-0---0---0---0---0---0---0---0--x----|-0-0---0---0---0---0---0---0---0--x-|
A|-3-5---5---5---x---x---5---x---5--x----|-3-5---5----------------------------|
D|-3-5---5---5---x---x---5---x---5--x----|-3-5---5----------------------------|
CHORUS:
F G N/C N/C G N/C G F G N/C N/C G F D
D|-1/3---3---3---0---0---3---0---3--x----|----1/3--(3)--3---0---0---3---1------2--x-|
B|-1/3---3---3---0---0---3---0---3--x----|----1/3--(3)--3---0---0---3---1------3--x-|
G|-0-0---0---0---0---0---0---0---0--x----|----0-0--(0)--0---0---0---0---0------2--x-|
D|-0-0---0---0---0---0---0---0---0--x----|----0-0--(0)--0---0---0---0---0------0--x-|
A|-3-5---5---5---x---x---5---x---5--x----|----3-5--(5)--5---x---x---5---3------0--x-|
D|-3-5---5---5---x---x---5---x---5--x----|----3-5--(5)--5---x---x---5---3------0--x-|
Well Homegrowns all right with me Homegrown is the way it should be
F G N/C N/C G N/C G G
D|-1/3---3---3---0---0---3---0---3--x----|----3-----|
B|-1/3---3---3---0---0---3---0---3--x----|----3---H-|
G|-0-0---0---0---0---0---0---0---0--x----|----0---O-|
D|-0-0---0---0---0---0---0---0---0--x----|----0---L-|
A|-3-5---5---5---x---x---5---x---5--x----|----5---D-|
D|-3-5---5---5---x---x---5---x---5--x----|----5-----|
Homegrown is a good thing Plant that bell and let it ring!
VERSE: (play just a progression with the G chord)
Sun comes up in the morning
And it shines that light around.
One day without no warning
Things start jumpin' up from the ground.
***************************************************************************
More Tabs At: http://members.fortunecity.com/dmedm/gitaar/guitar.htm
***************************************************************************




Ваше мнение



Капча