Neil Young - Hey Hey, My My
By: Andrew Mcshan([email protected])
Intro
Am G Fmajor7
----0-------------3---------------------0-0-0-0-0-0
----1-------------3---------------------1-1-1-1-1-1
----2-------------0---------------------2-2-2-2-2-2
----2----------0--0---------------------3-3-3-3-3-3
--0---0-2-3----2--2-0----0--0----------------------
------------------3---------3----------------------
Verse
Am G Fmajor7
----0-------------3-----------------0-0-0-0-0-0
----1-------------3-----------------1-1-1-1-1-1
----2-------------0-----------------2-2-2-2-2-2
----2----------0--0-0h2p0---0-------3-3-3-3-3-3
--0---0-2-3-------2-----------3---0------------
------------------3----------------------------
C G Am F
-0-0-0-0-3-3-3-3-0-0-0-0-1-1-1-1---
-1-1-1-1-3-3-3-3-1-1-1-1-1-1-1-1---
-0-0-0-0-0-0-0-0-2-2-2-2-2-2-2-2---
-2-2-2-2-0-0-0-0-2-2-2-2-3-3-3-3---
-3-3-3-3-2-2-2-2-------------------
---------3-3-3-3-------------------

Solo 1
-------------------------1-1-1-1-1-1-1-1-
-------------------------1-1-1-1-1-1-1-1-
-------------------------2-2-2-2-2-2-2-2-
-------------------------3-3-3-3-3-3-3-3-
-0-0-2-3-5vvvvvv-2-0---0-3-3-3-3-3-3-3-3-
---------------------3---1-1-1-1-1-1-1-1-
Solo 2
-------------------------------------
-------------------------------------
---------^---------------^-----------
-----0-2-5-------7-7-5-2-3-----3-2-0-
-3-3---------------------------------
-------------------------------------

-----5---------------------------------------
-------8-5---------------5-------5---5---5---
-7b9-------7/97-5---5-5---7-5h7-7b9-7b9-7b9-
-------------------7-------------------------
---------------------------------------------
---------------------------------------------
Solo 3
------------------------------------------------------------------
------------------------------------------------------------------
------------------------------------------------------------------
---------^--------------------------------------------------------
-0-0-2-3-5--------2-0-^-^-^-^-^---^------------^------------------
----------------------3-3333333---4-4-4-4-4-4--5-5-5-5-5-5-5-5-5--
Verse:
Hey Hey, My My
Rock and Roll will never die
There's More to the Picture
Than meets the eye
Hey Hey, My My

Solo 1

Verse 2:
It's Out of the blue and into the black
They give you this, but you pay for that
And once you've gone you can never come back
When you're out of the blue
and into the black.

Solo 2

Verse 3:
The King is gone but he's not forgotten
This is the story of Johnny Rotten( Johnny Rotten)
It's better to burn out than it is to rust never sleeps
The King is gone but he's not forgotten.

Solo 3 Then Solo 2 Again

Verse 1 Again




Ваше мнение



Капча