heart of gold

intro
(riff 1)
Em D Em
-----------------2-2-0---------|
----8-8-8-8-8-8--3-3-0---------|
----9-9-9-9-9-9--2-2-0-----0---|
----9-9-9-9-9-9--0-0-2-----0-2-|
----7-7-7-7-7-7------2-0H2-----|
-0-------------------0---------|

Em C D G Em C D G Em C D G (riff 1)

harm.
-----10-----------------10-10-15-12-10-12-10--------------------10-10-10----------|
-8-8----13-12-10-8---------------------------12---8-8-8-12-12-12----------13-12-8-|
-------------------7--------------------------------------------------------------|
----------------------------------------------------------------------------------|
----------------------------------------------------------------------------------|
----------------------------------------------------------------------------------|

verses

Em C D G
(1)i want to live I want to give
(2)ive been to hollywood ive been to redwood

Em C D G
ive been a miner for a heart of gold
ive cross the ocean for a heart of gold

Em C D G
it seems expressions i never give
ive been in my mind its such a fine line

chorus
(2X)
Em G
it keeps me searching for a heart of gold

C G
and im getting old (riff 2)

(riff 2)
C G
---------|
---------|
---------|
---------|
-3-2-0---|
-------3-|




Ваше мнение



Капча