TAB: Neil Young - Going Back
[email protected] (Malc Brookes)
Tue, 29 Oct 1996 13:39:04 GMT

A particular favourite of mine. This, and a lot more NY stuff, can be found on HyperRust Never Sleeps, http://HyperRust.org/ChordTab/
Regards, Malc
Going Back by Neil Young
from the album Comes A Time
tabbed by Malc Brookes
Tuning:
D modal, DADGBD.
Chords:
G D Am7 C D/F#
D|--0----7----5---------0--|
B|--0----7----5----1----3--|
G|--0----7----5----0----2--|
D|--0----7----5----2----4--|
A|--5----0----0----3-------|
D|--5----0-----------------|

Intro:
* = harmonics
D|----------------|
B|---7*---12*-----|
G|---7*---12*-----|
D|---7*---12*-----|
A|----------------|
D|-------------0--|
Am7 D Am7 D
D|-5--5--5--5--5--7--7--7--5--5--5--5--5--7-|-------------------|
B|-5--5--5--5--5--7--7--7--5--5--5--5--5--7-|-------------------|
G|-5--5--5--5--5--7--7--7--5--5--5--5--5--7-|------5p4---4\2----|
D|-5--5--5--5--5--7--7--7--5--5--5--5--5--7-|--5h7-----5-----4--|
A|------------------------------------------|-------------------|
D|------------------------------------------|-------------------|
Am7 D Am7 D
D|-5--5--5--5--5--7--7--7--5--5--5--5--5--7-|-------------------|
B|-5--5--5--5--5--7--7--7--5--5--5--5--5--7-|-------------------|
G|-5--5--5--5--5--7--7--7--5--5--5--5--5--7-|----5p4---4\2------|
D|-5--5--5--5--5--7--7--7--5--5--5--5--5--7-|--7-----5-----4/5--|
A|------------------------------------------|-------------------|
D|------------------------------------------|-------------------|
Am7 D Am7 D
D|-5--5--5--5--5--7--7--7--5--5--5--5--5--7-|-------------------|
B|-5--5--5--5--5--7--7--7--5--5--5--5--5--7-|-------------------|
G|-5--5--5--5--5--7--7--7--5--5--5--5--5--7-|------5p4---4\2----|
D|-5--5--5--5--5--7--7--7--5--5--5--5--5--7-|--5h7-----5-----4--|
A|------------------------------------------|-------------------|
D|------------------------------------------|-------------------|
Am7 D Am7 D
D|-5--5--5--5--5--7--7--7--5--5--5--5--5--7-|-------------------|
B|-5--5--5--5--5--7--7--7--5--5--5--5--5--7-|----------------0--|
G|-5--5--5--5--5--7--7--7--5--5--5--5--5--7-|-------5--4--2--0--|
D|-5--5--5--5--5--7--7--7--5--5--5--5--5--7-|--5h7--------------|
A|------------------------------------------|-------------------|
D|------------------------------------------|-------------------|

Verse:
G
In a foreign land
G
There were creatures at
C D/F# C D/F#
D|------------------------------|-------------------------------|
B|-1----------0h3-----3-------3-|-1----------0h3---------3--3---|
G|-0-------0--0h2-----2-------2-|-0-------0--0h2---------2--2---|
D|-0h2--0h2---0h4--0h4---5p4--0-|-0h2--0h2---0h4--5p4--0----0h4-|
A|-3----------------------------|-3-----------------------------|
D|------------------------------|-------------------------------|
play
G
Running hand in hand
G
Leading nowhere to
C D/F# C D/F#
D|------------------------------|-------------------------------|
B|-1----------0h3-----3-------3-|-1----------0h3---------3--3---|
G|-0-------0--0h2-----2-------2-|-0-------0--0h2---------2--2---|
D|-0h2--0h2---0h4--0h4---5p4--0-|-0h2--0h2---0h4--5p4--0----0h4-|
A|-3----------------------------|-3-----------------------------|
D|------------------------------|-------------------------------|
stay
Am7 D
Driven to the mountains high
Am7 D
They were sunken in the cities deep
Am7 D Am7 D
Livin' in my sleep.
D|-------------------|
B|-------------------|
G|------5p4---4\2----|
D|--5h7-----5-----4--|
A|-------------------|
D|-------------------|
Am7 D Am7 D
D|-5--5--5--5--5--7--7--7--5--5--5--5--5--7-|-------------------|
B|-5--5--5--5--5--7--7--7--5--5--5--5--5--7-|-------------------|
G|-5--5--5--5--5--7--7--7--5--5--5--5--5--7-|-------5--4--2-----|
D|-5--5--5--5--5--7--7--7--5--5--5--5--5--7-|--5h7-----------4--|
A|------------------------------------------|-------------------|
D|------------------------------------------|-------------------|
Am7 D Am7 D
D|-5--5--5--5--5--7--7--7--5--5--5--5--5--7-|-------------------|
B|-5--5--5--5--5--7--7--7--5--5--5--5--5--7-|-------------------|
G|-5--5--5--5--5--7--7--7--5--5--5--5--5--7-|------5p4---4\2----|
D|-5--5--5--5--5--7--7--7--5--5--5--5--5--7-|--5h7-----5-----4--|
A|------------------------------------------|-------------------|
D|------------------------------------------|-------------------|
Am7 D Am7 D
D|-5--5--5--5--5--7--7--7--5--5--5--5--5--7-|-------------------|
B|-5--5--5--5--5--7--7--7--5--5--5--5--5--7-|----------------0--|
G|-5--5--5--5--5--7--7--7--5--5--5--5--5--7-|-------5--4--2--0--|
D|-5--5--5--5--5--7--7--7--5--5--5--5--5--7-|--5h7--------------|
A|------------------------------------------|-------------------|
D|------------------------------------------|-------------------|

I feel like goin' back
Back where there's nowhere to stay When fire fills the sky
I'll still remember that day
These rocks I'm climbin' down
Have already left the ground
Careening through space.
D|-------------------|
B|-------------------|
G|------5p4---4\2----|
D|--5h7-----5-----4--|
A|-------------------|
D|-------------------|
Am7 D Am7 D
D|-5--5--5--5--5--7--7--7--5--5--5--5--5--7-|-------------------|
B|-5--5--5--5--5--7--7--7--5--5--5--5--5--7-|-------------------|
G|-5--5--5--5--5--7--7--7--5--5--5--5--5--7-|------5p4---4\2----|
D|-5--5--5--5--5--7--7--7--5--5--5--5--5--7-|--5h7-----5-----4--|
A|------------------------------------------|-------------------|
D|------------------------------------------|-------------------|
Am7 D Am7 D
D|-5--5--5--5--5--7--7--7--5--5--5--5--5--7-|-------------------|
B|-5--5--5--5--5--7--7--7--5--5--5--5--5--7-|-------------------|
G|-5--5--5--5--5--7--7--7--5--5--5--5--5--7-|-------------------|
D|-5--5--5--5--5--7--7--7--5--5--5--5--5--7-|--7-------7--------|
A|------------------------------------------|--0-------0--------|
D|------------------------------------------|--0-------0--------|
Am7 D Am7 D
D|-5--5--5--5--5--7--7--7--5--5--5--5--5--7-|-------------------|
B|-5--5--5--5--5--7--7--7--5--5--5--5--5--7-|-------------------|
G|-5--5--5--5--5--7--7--7--5--5--5--5--5--7-|-------------------|
D|-5--5--5--5--5--7--7--7--5--5--5--5--5--7-|--7-------7--------|
A|------------------------------------------|--0-------0--------|
D|------------------------------------------|--0-------0--------|
Am7 D Am7 D
D|-5--5--5--5--5--7--7--7--5--5--5--5--5--7-|-------------------|
B|-5--5--5--5--5--7--7--7--5--5--5--5--5--7-|-------------------|
G|-5--5--5--5--5--7--7--7--5--5--5--5--5--7-|-------------------|
D|-5--5--5--5--5--7--7--7--5--5--5--5--5--7-|--7-------7--------|
A|------------------------------------------|--0-------0--------|
D|------------------------------------------|--0-------0--------|
I used to build these buildings
I used to walk next to you
Their shadows tore us apart
And now we do what we do
Driven to the mountains high
Sunken in the cities deep
Livin' in our sleep.
D|-------------------|
B|----------------0--|
G|-------5--4--2--0--|
D|--5h7--------------|
A|-------------------|
D|-------------------|
G
I feel like goin' back
G C D/F# C D/F#
Back where there's nowhere to stay.
(repeat above to fade.)




Ваше мнение



Капча