-----------------------------------------------------------------
Blowin' In The Wind - Neil Young
-----------------------------------------------------------------
Tabbed by:Corey Bock
Email:[email protected]
Tuning:EADGBe
RIFF 1
e|---------------------------------------------------------------|
B|---------------------------------------------------------------|
G|---------------------------------------------------------------|
D|--9--9-9--11---11---9-9--------------9-9--9-9--11--9--7--9~----|
A|--------------------------11--9--7-----------------------------|
E|---------------------------------------------------------------|

RIFF 2
e|---------------------------------------------------------------|
B|---------------------------------------------------------------|
G|---------------------------------------------------------------|
D|-9-9--9--9---11---11---9-9-------------------------------------|
A|-----------------------------11--9--7-----9--11--11-11-11/--12-|
E|---------------------------------------------------------------|
e|--------------|
B|--------------|
G|--------------|
D|--------------|
A|--11---9-9----|
E|--------------|
RIFF 1 AGAIN
e|---------------------------------------------------------------|
B|---------------------------------------------------------------|
G|---------------------------------------------------------------|
D|--9--9-9--11---11---9-9--------------9-9--9-9--11--9--7--9~----|
A|--------------------------11--9--7-----------------------------|
E|---------------------------------------------------------------|
RIFF 3
e|---------------------------------------------------------------|
B|---------------------------------------------------------------|
G|---------------------------------------------------------------|
D|---------------------------------------------------------------|
A|---11--11h-12--12--11--9----9-9h-11-11-11--9--7-----11--11h-12-|
E|---------------------------------------------------------------|
e|---------------------------------------------------------------|
B|---------------------------------------------------------------|
G|---------------------------------------------------------------|
D|---------------------------------------------------------------|
A|-12--11--9---7-6-7---------------------------------------------|
E|---------------------------------------------------------------|
Listen to the Song for timing
Thats it for the most part, there are some chords that he plays every once and a
while EM and G will work, but most of the sound comes from the Battle sounds that
are also in the song
| / slide up
| slide down
| h hammer-on
| p pull-off
| ~ vibrato
| + harmonic
| x Mute note




Ваше мнение



Капча