#----------------------------------PLEASE NOTE---------------------------------#
#This file is the author's own work and represents their interpretation of the #
#song. You may only use this file for private study, scholarship, or research. #
#------------------------------------------------------------------------------##
From: [email protected] (Judy Letostak)
Subject: Yngwie Malmsteen - What Do You Want TAB
Date: Mon, 19 Jun 1995 21:25:51 -0700 (PDT)
Yngwie Malmsteen - What Do You Want?
from Eclipse
[email protected] Judy Letostak (comments, corrections, suggestions
welcome)
tune down 1/2 step
1/2
|--------------------5--7b---|--rb7---5------|----------------------------|
|-----------------5----------|---------------|----------------------------|
|--------------5-------------|---------------|----------------------------|
|-----------7----------------|---------------|----------------------------|
|--------7-------------------|---------------|----------------------------|
|---5h8----------------------|---------------|----------------------------|
|--------------|-----------------|------------------|---------------------|
|--------------|-----------------|------------------|---------------------|
|--------------|-----------------|------------------|-5-------------------|
|--------------|-----------------|------------------|-5-------------------|
|--------------|-----------------|-------------12--|-3--5--7--3----------|
|--5p3--5------|-----------0--3--|--5p3--5---------|------------7-5-3-0--|
|---------------------|------------------------|--------------------------|
|---------------------|------------------------|--------------------------|
|---------------------|--------%---------------|--------------%-----------|
|---------------------|------------------------|--------------------------|
|---------------------|------------------------|--------------------------|
|-5p3--5-5-5-5-5-5--3-|------------------------|--------------------------|
|-------------------------|------------------------------|-----------------|
|-------------------------|------------------------------|-----------------|
|-------------------------|------------------------------|-----------------|
|----------5--------------|------------------------------|-----------------|
|-3--5--7--3--------------|------------------------------|-----------------|
|-------------7--5--3--0--|-5p3--5--5--5--5--5--5--5--3--|-5--3--5p3--5--5-|
p.s.
---------------|------------------------|---------------------------------|
---------------|------------------------|-------------x------------------|
---------------|------------------------|-------------x------------------|
---------------|------------------------|---------------------------------|
----3p2--------|------------------------|-3--5--7--3-------------2--------|
-5-------5--3--|-5p3--5--5--5--5--5--5--|-------------7--5--3----0--------|
Verse
1. I was carried to you by the hands of my fate
2. I'm not the type top believe in a second chance
|-----------------------------------|---------------------------|----------|
|-----------------------------------|---------------------------|----------|
|-----------------------------------|---------------------------|----------|
|-----------------------------------|---------------------------|----------|
|------------------------3p2--------|---------------------------|----------|
|-5--3--5p3--5--5--5--5-------5--3--|-5p3--5--5--5--5--5--5--5--|-5p3--5---|
though it was too late. I wasn't the type to believe
or in sweet romance. I'm no beginner,
----------------|------------------------|--------------------------------|
----------------|------------------------|--------------------------------|
----------------|------------------------|--------------------------------|
----------------|------------------------|--------------------------------|
----------------|-3--5--7--3-------------|--------------------------------|
-5--5--5--5--5--|-------------7--5--3p0--|-5p3--5--5--5--5--5--5--5--3----|
in true love at first sight. You changed it to the right.
been fooling around before. Still coming back for more
|-----------------------------------|------------------------|-------------|
|-----------------------------------|------------------------|-------------|
|-----------------------------------|------------------------|-------------|
|-----------------------------------|------------------------|-------------|
|------------------------3p2--------|------------------------|-3--5--7--3--|
|-5--3--5p3--5--5--5--5-------5--3--|-5p3--5--5--5--5--5--5--|-------------|
Pre-Chorus
I know what I feel. This is
Today is different, it was
-------------|------------------------------|-----------------------------|
-------------|---6--------5----5---6--------|--6~----------6----6---------|
-------------|---7-------------7---7--------|--7~----------7----7---------|
-------------|---7-------------7---7--------|--8~----------8----8---------|
-------------|---5----5------------------5--|--------5--------------------|
-7--5--3p0---|------------------------------|-----------------------------|
real. Give you my body and soul. Let your resistance drop.
meant. I've found a reason. I know what I
|------------5-------|----6--------------------------|--------------------|
|--6----6----6-------|----6--------------------------|-6---6------6-------|
|--7----7----7----7--|----7-----xps-----------------|-7---7---7--7-------|
|--7----7---------7--|----------x------xps---------|-7---7---7----------|
|--------------------|------------------x--------5--|-5-------5-------5--|
|--------------------|-------------------------------|-5------------------|
Don't have to stop by the siren's
feel. This is real. There's more than one season.
|-------------------10---|--5-----------------|--5------------------------|
|--6~----------11---11---|--6--------5-----6--|--6--6--6--6--6--6--6--6---|
|--7~-w/bar----10--------|--7--------------7--|--7--7--7--7--7--7--7--7---|
|--7~----------12--------|--7-----------------|--8--8--8--8--8--8--8--8---|
|--5~--------------------|------5-------------|---------------------------|
|------------------------|--------------------|---------------------------|
Chorus
I cry. I try. So tell me, what do you want?
I cry. I try. Oh, baby, what do you want?
||------------------|----------------------|----------------|--------------|
||------------------|----------------------|----------------|--------------|
||o-----------------|----------------------|----------------|--------------|
||o-----------------|----------------------|----------------|--------------|
||------------------|------------3p2-------|-----------12--|-3--5--7--3---|
||5p3--5-------5p3--|-5p3--5----------5p3--|-5p3--5---------|--------------|
-------------||
-------------||
------------o||
------------o||
-------------||
--7--5--3p0--||
Guitar solo
Time to think it over.
|-/13-12p10-------------------------------|-17h18p17----17---------17h20---|
|-----------13-12-10----------------------|----------20------20bf----------|
|--------------------13-10-9--------------|--------------------------------|
|----------------------------12-10-9------|--------------------------------|
|------------------------------------11~--|--------------------------------|
|-----------------------------------------|--------------------------------|
--p17-20p17--|--17h18p17----18p17-----/18-17-18-15-18----18----18---------|
-------------|-----------20-------20~-----------------18----17----15------|
-------------|------------------------------------------------------------|
-------------|------------------------------------------------------------|
-------------|------------------------------------------------------------|
-------------|------------------------------------------------------------|
|-17p13--------13p10------------------------------------------------------|
|-------15----------------------------------------------------------------|
|----------14---------10h12p10p9p7----------------------------------------|
|----------------------------------7h8--10p8p7-------------0--------------|
|----------------------------------------------8h10p8p7----0--------------|
|-------------------------------------------------------10----------------|
|-------------------------------------------------------------------------|
|-----------------------------------------------------15-17-18-18bf~~~----|
|-----------------------------------------12-14-15-17---------------------|
|--------------------------------12-14-15---------------------------------|
|-x--x---------------10-12-13-15------------------------------------------|
|-------10--10-12-13------------------------------------------------------|
|--15-15------15--------15-------------------17--20bf~--|-20bf~~---20bf----|
|--------18bf----18bf~-----18-15h18p15----18------------|------------------|
|--------------------------------------19---------------|------------------|
|-------------------------------------------------------|------------------|
|-------------------------------------------------------|------------------|
|-------------------------------------------------------|------------------|
-15h18-17-15-13-15-17p13-12-13-15-12-10-12-13-10-10h12|h13p12p10-12p10------|
------------------------------------------------------|----------------13bf-|
------------------------------------------------------|---------------------|
------------------------------------------------------|---------------------|
------------------------------------------------------|---------------------|
------------------------------------------------------|---------------------|
--10-------10-------------10-----------------------------------|-----------|
-----13p10----13p10----------13p10-----------------------------|-----------|
--------------------12bf-----------13p12p10-12~--10h12p109-12/|14---15-17-|
---------------------------------------------------------------|---0-------|
---------------------------------------------------------------|-----------|
---------------------------------------------------------------|-----------|
1/2
-----17h18p17p15-------------------------22bf--|--------------17p16-1713--|
--15-------------18p17-18p17b--rb17-15--------|---------------------------|
-----------------------------------------------|---------------------------|
-----------------------------------------------|---------------------------|
-----------------------------------------------|---------------------------|
-----------------------------------------------|---------------------------|
-13-17-15-13-12----15-13-12---------20p16--|---------17p14-------/15-12----|
----------------15----------15bf~----------|-18----------------------------|
-------------------------------------------|----19~--------17-16-------14--|
-------------------------------------------|-------------------------------|
-------------------------------------------|-------------------------------|
-------------------------------------------|-------------------------------|
--------------------|---------------------------10-12h13p12p10-------------|
-------15p12--------|------------------10-12-13----------------13p12p10-12-|
--13~---------------|----------9-10-12-------------------------------------|
--------------15---|--9-10-12---------------------------------------------|
--------------------|------------------------------------------------------|
--------------------|------------------------------------------------------|
-------------------|--------------------------------10-12-12h13-12h13p12---|
--12p10p9----------|-----------------------10-12-13------------------------|
------------9-9-9--|--10~----------9-10-12---------------------------------|
-------------------|-------9-10-12-----------------------------------------|
-------------------|-------------------------------------------------------|
-------------------|-------------------------------------------------------|
--10------------|---------------------------|------------------------------|
------13p12-10--|--9-10-12------------------|------------------------------|
----------------|-----------7--7~---7-9-10--|------------------------------|
----------------|---------------------------|--7-----6~--------------------|
----------------|---------------------------|--------------7-8p7----7h8p7--|
----------------|---------------------------|--------------------10--------|
|----------------------12p10-------------13p12p10--------22bf~~~----------|
|----------------------------13p12p10-------------13p10/------------------|
|-------------9-10h13-----------------13----------------------------------|
|-----9-10-12-------------------------------------------------------------|
|--12---------------------------------------------------------------------|
|-------------------------------------------------------------------------|
1/2
|---19---19b---rb19----|--19p17-17~---17----------|------------------------|
|----------------------|-----------------17-------|-----------------13-15--|
|----------------------|--------------------17---|--/16h17p16-------------|
|----------------------|--------------------------|------------19~---------|
|----------------------|--------------------------|------------------------|
|----------------------|--------------------------|------------------------|
-----13-15h17p15p13-----------------------------|-------------------------|
--17----------------17p15p13--------------------|-------------------------|
-----------------------------16p14p12-----------|-------------------------|
--------------------------------------15p14p12--|-------------------------|
------------------------------------------------|--13--------------------|
------------------------------------------------|-------------------------|
Repeat chorus 4x then fade
==========================================================================
Legend:
.......
The Music Shop BBS
slide down /slide up (619)423-4970
h = hammeron
p = pulloff
* = artifical harmonic
t = tap with right hand
b = bend (steps are indicated over note)
bf = bend full (one step)
rb = release bend
~ = vibrato
x = ghost note
ps = pick scrape
==========================================================================




Ваше мнение



Капча