-----------------------------------------------------------------------------
Vengeance tab Finally !!!!
-----------------------------------------------------------------------------
mostly all of the notes on this tab
are palm muted so you don't need me to write it down
Enjoy !!!!!
E||---------------------------------------------------------------|
B||---------------------------------------------------------------|
G||---------------------------------6-----------------------------|
D||------------------6-----7-----------------7-----6--------------|
A||4--4--4--7--4--4-----4-----4--4-----4--4-----4-----4--4--7--4--|
E||---------------------------------------------------------------|
-----------------------------------------------------------------|
-----------------------------------------------------------------|
---------------------5--8--7--5----------------------------------|
---6-----------4--7--------------------------------6-----7-------|
4-----4--3--6--------------------4--4--4--7--4--4-----4-----4--4-|
-----------------------------------------------------------------|
----------------------------------------------------------------|
----------------------------------------------------------------|
6---------------------------------------6h8p6-------------------|
---------7-----6-----------------6-------------7--6--4----------|
---4--4-----4-----4--4--7--4--4-----4-------------------7--6--5-|
----------------------------------------------------------------|
E||---------------------------------------------------------------|
B||---------------------------------------------------------------|
G||---------------------------------6-----------------------------|
D||------------------6-----7-----------------7-----6--------------|
A||4--4--4--7--4--4-----4-----4--4-----4--4-----4-----4--4--7--4--|
E||---------------------------------------------------------------|
--------------------------------------------------------------------|
--------------------------------------------------------------------|
---------------------5--8--7--5--7~~~~~~~------------8--11-10-8--10-|
---6-----------4--7----------------------------7--10----------------|
4-----4--3--6----------------------------6--9-----------------------|
--------------------------------------------------------------------|
-------------------------------------------------------------------|
-------------------------------------------------------------------|
~~~~~~-------------11-14-13-11-13----------------------------------|
-------------10-13-------------------------------------------------|
--------9-12-------------------------------------------------------|
-------------------------------------------------------------------|
and the rest is impossiblae yngwie stuff




Ваше мнение



Капча