From: [email protected] (Mr.Scary)

This is the part of the classical guitar break in Trilogy Suite Op:5
from Malmsteen's Trilogy album.
^ = hammer/pull
Trilogy Suite
-------------
E----------0-------------0---------------0---1-------------------4-
B--------------1-------1---0^1---------3-------3-------3-------3---
G--------2---2-------2---------------2-----------2---4-------4-----
D------2---------2-3-----------3-2-0-------0-----------------------
A--0---------------------------------------------------------------
E--------------------------------------------------0-------4-------
| | | | | | | |
E--------0---------------0---------------0---1-----------5-------4-
B------------1^2-------1---0^1---------3-------3-------3-------3---
G------2---2---------2---------------2-----------2---4-------4-----
D----2-----------2-3-----------3-2-0-------0-----------------------
A--0---------------------------------------------------------------
E--------------------------------------------------0-------4-------
| | | | | | | |
E----------5-3^5^3^1-0-------0-1^0-------------3-1^3^1^0---------0---------
B--------2-----------------3-------3---------0-----------3---------1-------
G------2-----------------2-----------------0-------------------0-----0-----
D----2-----------------0-----------------0-------------------2-------------
A--4---------------------------------3-2-------------------3-----------3-2-
E--------------------------------------------------------------------------
| | | | | | | |
E--------0---------------7---------------0-------------------------
B----------3-----------6---6---------------0-1---------------------
G------3-----3-------7-------7---------2-------2-1-2---------------
D----0-------------6-----------6-----2---------------2-------------
A--1-----------1-0-----------------0-------------------3-2-0-------
E------------------------------------------------------------------
| | | | | | | |
E----------5-3^5^3^1-0-------0-1-0-------------3-1^3^1^0---------0---------
B--------2-----------------3-------3---------0-----------3---------1-------
G------2-----------------2-----------------0-------------------0-----0-----
D----2-----------------0-----------------0-------------------2-------------
A--4---------------------------------3-2-------------------3-----------3-2-
E--------------------------------------------------------------------------
| | | | | | | |
E--------0---------------5-4-------------3-------------2-------2-----------
B----------3-----------5-----5---------5---5---5---------4-------1---------
G------3-----3-------4---------4-----4-------4---4---2-------2-------------
D----0-----------------------------------------------------1---------------
A--1-----------1-0---------------------------------------------------------
E------------------4-------------4-3---------------2-----------------------
| | | | | | | | |
E--------------0---3-------
B----------0-----4-5-------
G------0-----0-------------
D--------4-----------------
A----2---------------------
E--0-----------------------
| | |
Mr.Scary (Gary Chapman)
----------------------------
[email protected]




Ваше мнение



Капча