Вступление: чтобы правильно сыграть нужно прослушать композицию.
По технике исполнения вступление чрезвычайно сложно, поэтому его можно пропустить и оставить для мастеров гитарной игры. Но услышать эти навороты просто необходимо:
Ее можно прослушать в gp3.
Кто знаком с этой програмкой Guitar Pro могу выслать файл.
Acoustic Guitar
----------------4-5-7/8p5-|-----5-8-8/11-11~--10-87--8-10p8p7-
----------5p4-5-----------|---6--------------------------------
----2-4/5-----------------|-7----------------------------------
|---2h3p2-0---2------------------------------------------------
|-0---------0--------------------------------------------------
---------------------------------------------------
---------------5-8/12p8----------------------------------------
--10---10~--5----------10-------------------------------------
-----9-------|---------5---------------9-10----10--5-4-21-----------------
-------------|-----2-7----------------------12-------------3-2-------------
-------------|-0h3---------------------------------------------5-3-2-0-----
---------------------------------------------------------------
-------------------------------5-8-5------------8-11-12~-------
-----------------------------5-------7-------10----------------
------------1---------2---|----------4-5------------8/11-------------------
----------0---------------|----7-6-7---------------------------------------
--2--3--2-----------------|--8---------------------------------------------
---------------------------------------------------------------
--12p10p8--------------------|
----------10h12p10p9--10-----|
--------------------------9--|
-----------------------------|
-----------------------------|
-----------------------------|
Основная тема: всем рекомендую выучить очень красивая мелодия, играть желательно медиатором.
Am Fmaj Dm
|----------0----------|----------0-------------|----------0-----1---------|
|-------1-----1p0-----|-------1-----0h1--------|-------3-----------3------|
|----2----------------|----2-------------------|----2--------2--------2---|
-------2--|-3----------------3--2--|-0------------------------|
|-0-----------------------------------------------|
--------------------------------------|
E7 E/G# Am Fmaj
----------4--|----------0----------|----------0---------------|
|-------3----------3-----|-------1-----1--0h1--|-------1-----0h1----------|
|----2----------4--------|----2----------------|----2---------------------|
-----------------------|-3----------------3--2----|
-------------|-0----------------------------------|
|-0----------4------------------------------------|
Dm E7 E7/G#
|----------0-------1--------|----------5-------------4-|
|-------3-------------3-----|-------3-------------3----|
|----2-------------------2--|----4-------------4-------|
|-0-------------0--------------------------|
-------------------------------|
----------------|-0-------------4----------|
A/C# Dm Dm/CG/B
--5--3h5p3-1-0-0--1p0---------3-1h3p1--
|----------2---------------|--------3----------3----|----------3-----------
|-------2-------------------------------|-------0--------------
|----2---------------------|--0---------------------|----0-----------------
|-4-----------------------------------3-|-2--------------------
---------------------------------------
C Bb #4 G# dim
--3-----|----------0--------------|----------0-------------|----------7----
-----0----1-----------|-------3-----3----------|-------6-----6-
--------|-------0--------0--------|----3-----------3-------|----7----------
--------|----2---------------------------------|-6-------------
--------|-3-----------------3--2--|-1-----------------1--0-----
---------------------------------------
Am A/C#
--------|----------0-------------------5-3h5p3-1-0-|
--------|-------1-----0h1------------|----------2--------------|
--7-----|----2-------------2--1--|-2-------------|-------2-----------------|
-----6---------------|----2----------|----2--------------------|
--------|-0----------------------|-------32--0--|-4-----------------------|
---------------------------------------|

Dm G/B C
|----------0-1p0----------3--1h3p1-0---|----------0------------|
|-------3---------3-----|----------3-------------3---1---------|
|----2------------------|-------0------------------|-------0--------0------|
|-0---------------------|----0---------------------|----2------------------|
---------3--|-2------------------------|-3-----------------3--2|
---------------------------------------|
Bb Bb/A E/G# Em/G
|----------0-------------|----------5--4-----------|----------3------------|
|-------3-----3----------|-------5--------5--------|-------5-----5-----5---|
|----3-----------3-------|----4--------------4-----|----4-----------4-----4|
---------------------------------------|
|-1-----------------1--0---------------------------|
-------------|-4--------------------4--|-3---------------------|
F# dim D#dim Em
|--------2-----------2---------------0-----|-3----------------|
4-----------1------0--------4--|-5----------------|
------2---------------0--------|-4----------------|
---1-----------|--------5--4---------------------|
--------------------------------------|
|--2-----------------------|--0-------------------------------|




Ваше мнение



Капча